  0
SECTION
  2
HEADER
  9
$ACADVER
  1
AC1015
  9
$ACADMAINTVER
 70
    20
  9
$DWGCODEPAGE
  3
ANSI_1252
  9
$INSBASE
 10
0.0
 20
0.0
 30
0.0
  9
$EXTMIN
 10
-0.0000000000000009
 20
0.0
 30
0.0
  9
$EXTMAX
 10
116.0
 20
116.0
 30
0.0
  9
$LIMMIN
 10
0.0
 20
0.0
  9
$LIMMAX
 10
12.0
 20
9.0
  9
$ORTHOMODE
 70
     1
  9
$REGENMODE
 70
     1
  9
$FILLMODE
 70
     1
  9
$QTEXTMODE
 70
     0
  9
$MIRRTEXT
 70
     0
  9
$LTSCALE
 40
4.0
  9
$ATTMODE
 70
     1
  9
$TEXTSIZE
 40
0.2
  9
$TRACEWID
 40
0.05
  9
$TEXTSTYLE
  7
Standard
  9
$CLAYER
  8
S-LEADER
  9
$CELTYPE
  6
ByLayer
  9
$CECOLOR
 62
   256
  9
$CELTSCALE
 40
1.0
  9
$DISPSILH
 70
     0
  9
$DIMSCALE
 40
1.0
  9
$DIMASZ
 40
0.18
  9
$DIMEXO
 40
0.0625
  9
$DIMDLI
 40
0.38
  9
$DIMRND
 40
0.0
  9
$DIMDLE
 40
0.0
  9
$DIMEXE
 40
0.18
  9
$DIMTP
 40
0.0
  9
$DIMTM
 40
0.0
  9
$DIMTXT
 40
0.18
  9
$DIMCEN
 40
0.09
  9
$DIMTSZ
 40
0.0
  9
$DIMTOL
 70
     0
  9
$DIMLIM
 70
     0
  9
$DIMTIH
 70
     1
  9
$DIMTOH
 70
     1
  9
$DIMSE1
 70
     0
  9
$DIMSE2
 70
     0
  9
$DIMTAD
 70
     0
  9
$DIMZIN
 70
     0
  9
$DIMBLK
  1

  9
$DIMASO
 70
     1
  9
$DIMSHO
 70
     1
  9
$DIMPOST
  1

  9
$DIMAPOST
  1

  9
$DIMALT
 70
     0
  9
$DIMALTD
 70
     2
  9
$DIMALTF
 40
25.4
  9
$DIMLFAC
 40
1.0
  9
$DIMTOFL
 70
     0
  9
$DIMTVP
 40
0.0
  9
$DIMTIX
 70
     0
  9
$DIMSOXD
 70
     0
  9
$DIMSAH
 70
     0
  9
$DIMBLK1
  1

  9
$DIMBLK2
  1

  9
$DIMSTYLE
  2
Standard
  9
$DIMCLRD
 70
     0
  9
$DIMCLRE
 70
     0
  9
$DIMCLRT
 70
     0
  9
$DIMTFAC
 40
1.0
  9
$DIMGAP
 40
0.09
  9
$DIMJUST
 70
     0
  9
$DIMSD1
 70
     0
  9
$DIMSD2
 70
     0
  9
$DIMTOLJ
 70
     1
  9
$DIMTZIN
 70
     0
  9
$DIMALTZ
 70
     0
  9
$DIMALTTZ
 70
     0
  9
$DIMUPT
 70
     0
  9
$DIMDEC
 70
     4
  9
$DIMTDEC
 70
     4
  9
$DIMALTU
 70
     2
  9
$DIMALTTD
 70
     2
  9
$DIMTXSTY
  7
Standard
  9
$DIMAUNIT
 70
     0
  9
$DIMADEC
 70
     0
  9
$DIMALTRND
 40
0.0
  9
$DIMAZIN
 70
     0
  9
$DIMDSEP
 70
    46
  9
$DIMATFIT
 70
     3
  9
$DIMFRAC
 70
     0
  9
$DIMLDRBLK
  1

  9
$DIMLUNIT
 70
     2
  9
$DIMLWD
 70
    -2
  9
$DIMLWE
 70
    -2
  9
$DIMTMOVE
 70
     0
  9
$LUNITS
 70
     4
  9
$LUPREC
 70
     5
  9
$SKETCHINC
 40
0.1
  9
$FILLETRAD
 40
0.0
  9
$AUNITS
 70
     0
  9
$AUPREC
 70
     0
  9
$MENU
  1
.
  9
$ELEVATION
 40
0.0
  9
$PELEVATION
 40
0.0
  9
$THICKNESS
 40
0.0
  9
$LIMCHECK
 70
     0
  9
$CHAMFERA
 40
0.0
  9
$CHAMFERB
 40
0.0
  9
$CHAMFERC
 40
0.0
  9
$CHAMFERD
 40
0.0
  9
$SKPOLY
 70
     0
  9
$TDCREATE
 40
2453391.393778715
  9
$TDUCREATE
 40
2453391.602112049
  9
$TDUPDATE
 40
2455160.884223993
  9
$TDUUPDATE
 40
2455161.092557327
  9
$TDINDWG
 40
0.0605514468
  9
$TDUSRTIMER
 40
0.0605510995
  9
$USRTIMER
 70
     1
  9
$ANGBASE
 50
0.0
  9
$ANGDIR
 70
     0
  9
$PDMODE
 70
     0
  9
$PDSIZE
 40
0.0
  9
$PLINEWID
 40
0.0
  9
$SPLFRAME
 70
     0
  9
$SPLINETYPE
 70
     6
  9
$SPLINESEGS
 70
     8
  9
$HANDSEED
  5
96D
  9
$SURFTAB1
 70
     6
  9
$SURFTAB2
 70
     6
  9
$SURFTYPE
 70
     6
  9
$SURFU
 70
     6
  9
$SURFV
 70
     6
  9
$UCSBASE
  2

  9
$UCSNAME
  2

  9
$UCSORG
 10
0.0
 20
0.0
 30
0.0
  9
$UCSXDIR
 10
1.0
 20
0.0
 30
0.0
  9
$UCSYDIR
 10
0.0
 20
1.0
 30
0.0
  9
$UCSORTHOREF
  2

  9
$UCSORTHOVIEW
 70
     0
  9
$UCSORGTOP
 10
0.0
 20
0.0
 30
0.0
  9
$UCSORGBOTTOM
 10
0.0
 20
0.0
 30
0.0
  9
$UCSORGLEFT
 10
0.0
 20
0.0
 30
0.0
  9
$UCSORGRIGHT
 10
0.0
 20
0.0
 30
0.0
  9
$UCSORGFRONT
 10
0.0
 20
0.0
 30
0.0
  9
$UCSORGBACK
 10
0.0
 20
0.0
 30
0.0
  9
$PUCSBASE
  2

  9
$PUCSNAME
  2

  9
$PUCSORG
 10
0.0
 20
0.0
 30
0.0
  9
$PUCSXDIR
 10
1.0
 20
0.0
 30
0.0
  9
$PUCSYDIR
 10
0.0
 20
1.0
 30
0.0
  9
$PUCSORTHOREF
  2

  9
$PUCSORTHOVIEW
 70
     0
  9
$PUCSORGTOP
 10
0.0
 20
0.0
 30
0.0
  9
$PUCSORGBOTTOM
 10
0.0
 20
0.0
 30
0.0
  9
$PUCSORGLEFT
 10
0.0
 20
0.0
 30
0.0
  9
$PUCSORGRIGHT
 10
0.0
 20
0.0
 30
0.0
  9
$PUCSORGFRONT
 10
0.0
 20
0.0
 30
0.0
  9
$PUCSORGBACK
 10
0.0
 20
0.0
 30
0.0
  9
$USERI1
 70
     0
  9
$USERI2
 70
     0
  9
$USERI3
 70
     0
  9
$USERI4
 70
     0
  9
$USERI5
 70
     0
  9
$USERR1
 40
16.0
  9
$USERR2
 40
0.0
  9
$USERR3
 40
0.0
  9
$USERR4
 40
0.0
  9
$USERR5
 40
0.0
  9
$WORLDVIEW
 70
     1
  9
$SHADEDGE
 70
     3
  9
$SHADEDIF
 70
    70
  9
$TILEMODE
 70
     1
  9
$MAXACTVP
 70
    64
  9
$PINSBASE
 10
0.0
 20
0.0
 30
0.0
  9
$PLIMCHECK
 70
     0
  9
$PEXTMIN
 10
0.0
 20
0.0
 30
0.0
  9
$PEXTMAX
 10
0.0
 20
0.0
 30
0.0
  9
$PLIMMIN
 10
0.0
 20
0.0
  9
$PLIMMAX
 10
12.0
 20
9.0
  9
$UNITMODE
 70
     0
  9
$VISRETAIN
 70
     1
  9
$PLINEGEN
 70
     0
  9
$PSLTSCALE
 70
     1
  9
$TREEDEPTH
 70
  3020
  9
$CMLSTYLE
  2
Standard
  9
$CMLJUST
 70
     0
  9
$CMLSCALE
 40
1.0
  9
$PROXYGRAPHICS
 70
     1
  9
$MEASUREMENT
 70
     0
  9
$CELWEIGHT
370
    -1
  9
$ENDCAPS
280
     0
  9
$JOINSTYLE
280
     0
  9
$LWDISPLAY
290
     0
  9
$INSUNITS
 70
     1
  9
$HYPERLINKBASE
  1

  9
$STYLESHEET
  1

  9
$XEDIT
290
     1
  9
$CEPSNTYPE
380
     0
  9
$PSTYLEMODE
290
     1
  9
$FINGERPRINTGUID
  2
{2E575CA2-A4B1-4888-8703-C52A1030E863}
  9
$VERSIONGUID
  2
{5BF60A8A-1218-47FD-9282-51C8978B5B3C}
  9
$EXTNAMES
290
     1
  9
$PSVPSCALE
 40
0.0
  9
$OLESTARTUP
290
     0
  0
ENDSEC
  0
SECTION
  2
CLASSES
  0
CLASS
  1
ACDBDICTIONARYWDFLT
  2
AcDbDictionaryWithDefault
  3
ObjectDBX Classes
 90
        0
280
     0
281
     0
  0
CLASS
  1
ACDBPLACEHOLDER
  2
AcDbPlaceHolder
  3
ObjectDBX Classes
 90
        0
280
     0
281
     0
  0
CLASS
  1
LAYOUT
  2
AcDbLayout
  3
ObjectDBX Classes
 90
        0
280
     0
281
     0
  0
CLASS
  1
DICTIONARYVAR
  2
AcDbDictionaryVar
  3
ObjectDBX Classes
 90
        0
280
     0
281
     0
  0
CLASS
  1
TABLESTYLE
  2
AcDbTableStyle
  3
ObjectDBX Classes
 90
     2047
280
     0
281
     0
  0
CLASS
  1
SORTENTSTABLE
  2
AcDbSortentsTable
  3
ObjectDBX Classes
 90
        0
280
     0
281
     0
  0
ENDSEC
  0
SECTION
  2
TABLES
  0
TABLE
  2
VPORT
  5
8
330
0
100
AcDbSymbolTable
 70
     2
  0
VPORT
  5
966
330
8
100
AcDbSymbolTableRecord
100
AcDbViewportTableRecord
  2
*Active
 70
     0
 10
0.0
 20
0.0
 11
1.0
 21
1.0
 12
57.99557717959594
 22
57.99557717959595
 13
0.0
 23
0.0
 14
0.5
 24
0.5
 15
0.5
 25
0.5
 16
0.0
 26
0.0
 36
1.0
 17
0.0
 27
0.0
 37
0.0
 40
117.1172131350325
 41
1.594896331738437
 42
50.0
 43
0.0
 44
0.0
 50
0.0
 51
0.0
 71
     0
 72
  1000
 73
     1
 74
     3
 75
     0
 76
     0
 77
     0
 78
     0
281
     0
 65
     1
110
0.0
120
0.0
130
0.0
111
1.0
121
0.0
131
0.0
112
0.0
122
1.0
132
0.0
 79
     0
146
0.0
  0
ENDTAB
  0
TABLE
  2
LTYPE
  5
5
330
0
100
AcDbSymbolTable
 70
     1
  0
LTYPE
  5
14
330
5
100
AcDbSymbolTableRecord
100
AcDbLinetypeTableRecord
  2
ByBlock
 70
     0
  3

 72
    65
 73
     0
 40
0.0
  0
LTYPE
  5
15
330
5
100
AcDbSymbolTableRecord
100
AcDbLinetypeTableRecord
  2
ByLayer
 70
     0
  3

 72
    65
 73
     0
 40
0.0
  0
LTYPE
  5
16
330
5
100
AcDbSymbolTableRecord
100
AcDbLinetypeTableRecord
  2
Continuous
 70
     0
  3
Solid line
 72
    65
 73
     0
 40
0.0
  0
ENDTAB
  0
TABLE
  2
LAYER
  5
2
102
{ACAD_XDICTIONARY
360
14F
102
}
330
0
100
AcDbSymbolTable
 70
    20
  0
LAYER
  5
10
330
2
100
AcDbSymbolTableRecord
100
AcDbLayerTableRecord
  2
0
 70
     0
 62
     7
  6
Continuous
370
    -3
390
F
  0
LAYER
  5
8B
330
2
100
AcDbSymbolTableRecord
100
AcDbLayerTableRecord
  2
Defpoints
 70
     0
 62
     8
  6
Continuous
290
     0
370
    -3
390
F
  0
LAYER
  5
108
330
2
100
AcDbSymbolTableRecord
100
AcDbLayerTableRecord
  2
Review Text Box
 70
     0
 62
     7
  6
Continuous
370
    -3
390
F
1001
AcAecLayerStandard
1000

1000

  0
LAYER
  5
14C
330
2
100
AcDbSymbolTableRecord
100
AcDbLayerTableRecord
  2
Disclaimer Box
 70
     0
 62
     8
  6
Continuous
370
    -3
390
F
1001
AcAecLayerStandard
1000

1000

  0
LAYER
  5
1D6
330
2
100
AcDbSymbolTableRecord
100
AcDbLayerTableRecord
  2
S-TEXT
 70
     0
 62
     6
  6
Continuous
370
    -3
390
F
  0
LAYER
  5
1D7
330
2
100
AcDbSymbolTableRecord
100
AcDbLayerTableRecord
  2
S-DIMS
 70
     0
 62
     7
  6
Continuous
370
    -3
390
F
  0
LAYER
  5
1D8
330
2
100
AcDbSymbolTableRecord
100
AcDbLayerTableRecord
  2
S-SECT WOOD
 70
     0
 62
    21
  6
Continuous
370
    -3
390
F
  0
LAYER
  5
1D9
330
2
100
AcDbSymbolTableRecord
100
AcDbLayerTableRecord
  2
S-MISC
 70
     0
 62
     2
  6
Continuous
370
    -3
390
F
  0
LAYER
  5
1DA
330
2
100
AcDbSymbolTableRecord
100
AcDbLayerTableRecord
  2
S-PATT WOOD
 70
     0
 62
     8
  6
Continuous
370
    -3
390
F
  0
LAYER
  5
1DB
330
2
100
AcDbSymbolTableRecord
100
AcDbLayerTableRecord
  2
S-PATT CONC
 70
     0
 62
     8
  6
Continuous
370
    -3
390
F
  0
LAYER
  5
1DC
330
2
100
AcDbSymbolTableRecord
100
AcDbLayerTableRecord
  2
S-SECT CONC
 70
     0
 62
     4
  6
Continuous
370
    -3
390
F
  0
LAYER
  5
1DD
330
2
100
AcDbSymbolTableRecord
100
AcDbLayerTableRecord
  2
S-TITLE TEXT
 70
     0
 62
     1
  6
Continuous
370
    -3
390
F
  0
LAYER
  5
1DE
330
2
100
AcDbSymbolTableRecord
100
AcDbLayerTableRecord
  2
S-TITLE BAR
 70
     0
 62
     1
  6
Continuous
370
    -3
390
F
  0
LAYER
  5
1DF
330
2
100
AcDbSymbolTableRecord
100
AcDbLayerTableRecord
  2
S-LEADER
 70
     0
 62
     7
  6
Continuous
370
    -3
390
F
  0
LAYER
  5
1E1
330
2
100
AcDbSymbolTableRecord
100
AcDbLayerTableRecord
  2
S-ARROW HEAD
 70
     0
 62
     6
  6
Continuous
370
    -3
390
F
  0
LAYER
  5
1E2
330
2
100
AcDbSymbolTableRecord
100
AcDbLayerTableRecord
  2
Library Detail No.
 70
     0
 62
     8
  6
Continuous
370
    -3
390
F
  0
LAYER
  5
34F
330
2
100
AcDbSymbolTableRecord
100
AcDbLayerTableRecord
  2
Current Status
 70
     0
 62
     3
  6
Continuous
370
    -3
390
F
1001
AcAecLayerStandard
1000

1000

  0
LAYER
  5
382
330
2
100
AcDbSymbolTableRecord
100
AcDbLayerTableRecord
  2
Detail Frame
 70
     0
 62
     8
  6
Continuous
370
    -3
390
F
1001
AcAecLayerStandard
1000

1000

  0
LAYER
  5
4BF
330
2
100
AcDbSymbolTableRecord
100
AcDbLayerTableRecord
  2
S-PATT MAS
 70
     0
 62
     8
  6
Continuous
370
    -3
390
F
  0
LAYER
  5
4C2
330
2
100
AcDbSymbolTableRecord
100
AcDbLayerTableRecord
  2
S-ARCH'L BRICK
 70
     0
 62
    23
  6
Continuous
370
    -3
390
F
  0
ENDTAB
  0
TABLE
  2
STYLE
  5
3
330
0
100
AcDbSymbolTable
 70
     3
  0
STYLE
  5
11
330
3
100
AcDbSymbolTableRecord
100
AcDbTextStyleTableRecord
  2
Standard
 70
     0
 40
0.0
 41
1.0
 50
0.0
 71
     0
 42
0.2
  3
txt
  4

  0
STYLE
  5
14D
330
3
100
AcDbSymbolTableRecord
100
AcDbTextStyleTableRecord
  2
SIMPLEX
 70
     0
 40
0.0
 41
0.8
 50
0.0
 71
     0
 42
0.09375
  3
simplex.shx
  4

  0
STYLE
  5
1E3
330
3
100
AcDbSymbolTableRecord
100
AcDbTextStyleTableRecord
  2
HELV
 70
     0
 40
0.0
 41
1.0
 50
0.0
 71
     0
 42
0.09375
  3
HELV
  4

  0
ENDTAB
  0
TABLE
  2
VIEW
  5
6
330
0
100
AcDbSymbolTable
 70
     0
  0
ENDTAB
  0
TABLE
  2
UCS
  5
7
330
0
100
AcDbSymbolTable
 70
     0
  0
ENDTAB
  0
TABLE
  2
APPID
  5
9
330
0
100
AcDbSymbolTable
 70
     5
  0
APPID
  5
12
330
9
100
AcDbSymbolTableRecord
100
AcDbRegAppTableRecord
  2
ACAD
 70
     0
  0
APPID
  5
D6
330
9
100
AcDbSymbolTableRecord
100
AcDbRegAppTableRecord
  2
ACAD_PSEXT
 70
     0
  0
APPID
  5
109
330
9
100
AcDbSymbolTableRecord
100
AcDbRegAppTableRecord
  2
AcAecLayerStandard
 70
     0
  0
APPID
  5
14E
330
9
100
AcDbSymbolTableRecord
100
AcDbRegAppTableRecord
  2
RAK
 70
     0
  0
APPID
  5
195
330
9
100
AcDbSymbolTableRecord
100
AcDbRegAppTableRecord
  2
ACAD_DSTYLE_DIMTEXT_FILL
 70
     0
  0
ENDTAB
  0
TABLE
  2
DIMSTYLE
  5
A
330
0
100
AcDbSymbolTable
 70
     1
100
AcDbDimStyleTable
 71
     1
340
27
  0
DIMSTYLE
105
27
330
A
100
AcDbSymbolTableRecord
100
AcDbDimStyleTableRecord
  2
Standard
 70
     0
340
11
  0
ENDTAB
  0
TABLE
  2
BLOCK_RECORD
  5
1
330
0
100
AcDbSymbolTable
 70
     2
  0
BLOCK_RECORD
  5
1F
102
{ACAD_XDICTIONARY
360
A4
102
}
330
1
100
AcDbSymbolTableRecord
100
AcDbBlockTableRecord
  2
*Model_Space
340
22
  0
BLOCK_RECORD
  5
58
330
1
100
AcDbSymbolTableRecord
100
AcDbBlockTableRecord
  2
*Paper_Space
340
59
  0
BLOCK_RECORD
  5
1C8
330
1
100
AcDbSymbolTableRecord
100
AcDbBlockTableRecord
  2
axarrow
340
0
102
{BLKREFS
331
2C2
331
2C9
331
2CA
331
2DC
331
2DF
331
2E7
331
2E9
331
2FF
331
304
331
320
331
48F
331
490
331
491
331
493
331
496
331
499
331
49A
331
49B
331
49E
331
4A0
331
88B
331
8B6
331
8B7
331
8C1
331
8C2
331
8C8
102
}
  0
BLOCK_RECORD
  5
1CF
330
1
100
AcDbSymbolTableRecord
100
AcDbBlockTableRecord
  2
TARGET
340
0
102
{BLKREFS
331
2BE
331
2DA
102
}
  0
ENDTAB
  0
ENDSEC
  0
SECTION
  2
BLOCKS
  0
BLOCK
  5
20
330
1F
100
AcDbEntity
  8
0
100
AcDbBlockBegin
  2
*Model_Space
 70
     0
 10
0.0
 20
0.0
 30
0.0
  3
*Model_Space
  1

  0
ENDBLK
  5
21
330
1F
100
AcDbEntity
  8
0
100
AcDbBlockEnd
  0
BLOCK
  5
5A
330
58
100
AcDbEntity
 67
     1
  8
0
100
AcDbBlockBegin
  2
*Paper_Space
 70
     0
 10
0.0
 20
0.0
 30
0.0
  3
*Paper_Space
  1

  0
ENDBLK
  5
5B
330
58
100
AcDbEntity
 67
     1
  8
0
100
AcDbBlockEnd
  0
BLOCK
  5
1C9
330
1C8
100
AcDbEntity
  8
0
100
AcDbBlockBegin
  2
axarrow
 70
     0
 10
0.0
 20
0.0
 30
0.0
  3
axarrow
  1

  0
LINE
  5
1CA
102
{ACAD_REACTORS
330
1CD
102
}
330
1C8
100
AcDbEntity
  8
S-ARROW HEAD
100
AcDbLine
 10
-0.0937500000000011
 20
0.015
 30
0.0
 11
-0.0937500000000016
 21
-0.015
 31
0.0
  0
LINE
  5
1CB
102
{ACAD_REACTORS
330
1CD
102
}
330
1C8
100
AcDbEntity
  8
S-ARROW HEAD
100
AcDbLine
 10
-0.0937500000000011
 20
0.015
 30
0.0
 11
0.0
 21
0.0
 31
0.0
  0
LINE
  5
1CC
102
{ACAD_REACTORS
330
1CD
102
}
330
1C8
100
AcDbEntity
  8
S-ARROW HEAD
100
AcDbLine
 10
0.0
 20
0.0
 30
0.0
 11
-0.0937500000000016
 21
-0.015
 31
0.0
  0
HATCH
  5
1CD
330
1C8
100
AcDbEntity
  8
S-ARROW HEAD
100
AcDbHatch
 10
0.0
 20
0.0
 30
0.0
210
0.0
220
0.0
230
1.0
  2
SOLID
 70
     1
 71
     1
 91
        1
 92
        7
 72
     0
 73
     1
 93
        3
 10
-0.0937500000000011
 20
0.015
 10
-0.0937500000000016
 20
-0.015
 10
0.0
 20
0.0
 97
        3
330
1CA
330
1CC
330
1CB
 75
     0
 76
     1
 47
0.0002139378461074
 98
        1
 10
-0.0583089994912118
 20
0.0011510464317446
  0
ENDBLK
  5
1CE
330
1C8
100
AcDbEntity
  8
0
100
AcDbBlockEnd
  0
BLOCK
  5
1D0
330
1CF
100
AcDbEntity
  8
0
100
AcDbBlockBegin
  2
TARGET
 70
     0
 10
0.0
 20
0.0
 30
0.0
  3
TARGET
  1

  0
CIRCLE
  5
1D1
102
{ACAD_REACTORS
330
1D4
102
}
330
1CF
100
AcDbEntity
  8
S-MISC
100
AcDbCircle
 10
-0.0000000000014889
 20
0.0
 30
0.0
 40
0.06250003125
  0
LINE
  5
1D2
102
{ACAD_REACTORS
330
1D4
102
}
330
1CF
100
AcDbEntity
  8
S-MISC
100
AcDbLine
 10
-0.0000000000014889
 20
0.0937500468749875
 30
0.0
 11
-0.0000000000014889
 21
-0.0937500468749875
 31
0.0
  0
LINE
  5
1D3
102
{ACAD_REACTORS
330
1D4
102
}
330
1CF
100
AcDbEntity
  8
S-MISC
100
AcDbLine
 10
-0.0937500468763911
 20
0.0
 30
0.0
 11
0.0937500468734133
 21
0.0
 31
0.0
  0
HATCH
  5
1D4
330
1CF
100
AcDbEntity
  8
S-MISC
100
AcDbHatch
 10
0.0
 20
0.0
 30
0.0
210
0.0
220
0.0
230
1.0
  2
SOLID
 70
     1
 71
     1
 91
        2
 92
        7
 72
     1
 73
     1
 93
        3
 10
-0.0000000000014889
 20
0.06250003125
 42
0.0
 10
-0.0000000000014889
 20
0.0
 42
0.0
 10
0.062500031248511
 20
0.0
 42
0.4142135623730951
 97
        3
330
1D2
330
1D3
330
1D1
 92
        7
 72
     1
 73
     1
 93
        3
 10
-0.0000000000014889
 20
0.0
 42
0.0
 10
-0.0625000312514889
 20
0.0
 42
0.4142135623730951
 10
-0.0000000000014889
 20
-0.06250003125
 42
0.0
 97
        3
330
1D3
330
1D1
330
1D2
 75
     0
 76
     1
 47
0.0003527128851801
 98
        2
 10
0.0218786199365601
 20
0.0324316735326913
 10
-0.0204782195571726
 20
-0.0165954174820471
  0
ENDBLK
  5
1D5
330
1CF
100
AcDbEntity
  8
0
100
AcDbBlockEnd
  0
ENDSEC
  0
SECTION
  2
ENTITIES
  0
LINE
  5
9A
330
1F
100
AcDbEntity
  8
Detail Frame
100
AcDbLine
 10
-0.0000000000000009
 20
116.0
 30
0.0
 11
116.0
 21
116.0
 31
0.0
  0
LINE
  5
9B
330
1F
100
AcDbEntity
  8
Detail Frame
100
AcDbLine
 10
116.0
 20
116.0
 30
0.0
 11
116.0
 21
0.0000000000000004
 31
0.0
  0
LINE
  5
9C
330
1F
100
AcDbEntity
  8
Detail Frame
100
AcDbLine
 10
-0.0000000000000009
 20
0.0
 30
0.0
 11
116.0
 21
0.0
 31
0.0
  0
LINE
  5
9D
330
1F
100
AcDbEntity
  8
Detail Frame
100
AcDbLine
 10
0.0000000000000133
 20
116.0
 30
0.0
 11
0.0000000000000133
 21
0.0000000000000004
 31
0.0
  0
LINE
  5
9E
330
1F
100
AcDbEntity
  8
Defpoints
100
AcDbLine
 10
14.00000000000001
 20
13.0
 30
0.0
 11
14.00000000000001
 21
11.0
 31
0.0
  0
LINE
  5
9F
330
1F
100
AcDbEntity
  8
Defpoints
100
AcDbLine
 10
13.00000000000001
 20
12.0
 30
0.0
 11
15.00000000000001
 21
12.0
 31
0.0
  0
LINE
  5
A0
330
1F
100
AcDbEntity
  8
Defpoints
100
AcDbLine
 10
13.00000000000001
 20
13.0
 30
0.0
 11
13.00000000000001
 21
11.0
 31
0.0
  0
LINE
  5
A1
330
1F
100
AcDbEntity
  8
Defpoints
100
AcDbLine
 10
15.00000000000001
 20
13.0
 30
0.0
 11
15.00000000000001
 21
11.0
 31
0.0
  0
LINE
  5
A2
330
1F
100
AcDbEntity
  8
Defpoints
100
AcDbLine
 10
13.00000000000001
 20
13.0
 30
0.0
 11
15.00000000000001
 21
13.0
 31
0.0
  0
LINE
  5
A3
330
1F
100
AcDbEntity
  8
Defpoints
100
AcDbLine
 10
13.00000000000001
 20
11.0
 30
0.0
 11
15.00000000000001
 21
11.0
 31
0.0
  0
ARC
  5
161
330
1F
100
AcDbEntity
  8
Disclaimer Box
100
AcDbCircle
 10
36.50000000000041
 20
9.5
 30
0.0
 40
0.5
100
AcDbArc
 50
90.0
 51
180.0000000000032
  0
ARC
  5
162
330
1F
100
AcDbEntity
  8
Disclaimer Box
100
AcDbCircle
 10
79.50000000000001
 20
9.5
 30
0.0
 40
0.5
100
AcDbArc
 50
359.9999999999968
 51
90.0
  0
LINE
  5
163
330
1F
100
AcDbEntity
  8
Disclaimer Box
100
AcDbLine
 10
36.50000000000041
 20
2.0
 30
0.0
 11
79.50000000000041
 21
2.0
 31
0.0
  0
ARC
  5
164
330
1F
100
AcDbEntity
  8
Disclaimer Box
100
AcDbCircle
 10
79.50000000000041
 20
2.500000000000022
 30
0.0
 40
0.5
100
AcDbArc
 50
270.0
 51
359.9999999999974
  0
ARC
  5
165
330
1F
100
AcDbEntity
  8
Disclaimer Box
100
AcDbCircle
 10
36.50000000000041
 20
2.5
 30
0.0
 40
0.5
100
AcDbArc
 50
180.0000000000025
 51
270.0
  0
LINE
  5
166
330
1F
100
AcDbEntity
  8
Disclaimer Box
100
AcDbLine
 10
36.00000000000001
 20
9.499999999999971
 30
0.0
 11
36.00000000000041
 21
2.5
 31
0.0
  0
LINE
  5
167
330
1F
100
AcDbEntity
  8
Disclaimer Box
100
AcDbLine
 10
36.50000000000041
 20
10.0
 30
0.0
 11
79.50000000000001
 21
10.0
 31
0.0
  0
LINE
  5
168
330
1F
100
AcDbEntity
  8
Disclaimer Box
100
AcDbLine
 10
80.00000000000001
 20
9.499999999999971
 30
0.0
 11
80.0000000000004
 21
2.5
 31
0.0
  0
MTEXT
  5
169
330
1F
100
AcDbEntity
  8
Disclaimer Box
100
AcDbMText
 10
37.27981980434775
 20
7.469357984847867
 30
0.0
 40
0.75
 41
41.72533726007886
 71
     1
 72
     5
  3
This detail must not be used without the final and complete review and evaluation by the design professional. The design professional assumes total and final responsibility for this detail as explained in Responsibilities and Legal Notices in the axi
  1
omcpl.com website. Please remove the review text boxes and this disclaimer note after review.
  7
SIMPLEX
 73
     1
 44
1.0
1001
ACAD
1000
MTEXTBEGIN
1070
    73
1070
     1
1070
    44
1040
1.0
1070
    74
1070
     0
1000
MTEXTEND
  0
TEXT
  5
16A
330
1F
100
AcDbEntity
  8
Disclaimer Box
 62
     1
100
AcDbText
 10
49.3212572865215
 20
8.011447737118089
 30
0.0
 40
1.5
  1
Disclaimer note
  7
SIMPLEX
100
AcDbText
  0
LINE
  5
292
330
1F
100
AcDbEntity
  8
S-SECT WOOD
100
AcDbLine
 10
48.60963867117104
 20
69.75118688290797
 30
0.0
 11
78.27232168258794
 21
69.75118688290797
 31
0.0
  0
LINE
  5
293
330
1F
100
AcDbEntity
  8
S-SECT WOOD
100
AcDbLine
 10
48.60963867117104
 20
53.75118688290796
 30
0.0
 11
78.27232168258806
 21
53.75118688290796
 31
0.0
  0
LINE
  5
294
330
1F
100
AcDbEntity
  8
S-SECT WOOD
100
AcDbLine
 10
54.10963867117104
 20
53.75118688290796
 30
0.0
 11
54.10963867117104
 21
22.28651159523462
 31
0.0
  0
LINE
  5
295
330
1F
100
AcDbEntity
  8
S-SECT WOOD
100
AcDbLine
 10
47.98463867117104
 20
98.71861070602635
 30
0.0
 11
47.98463867117104
 21
22.28651159523463
 31
0.0
  0
LINE
  5
296
330
1F
100
AcDbEntity
  8
S-SECT WOOD
100
AcDbLine
 10
48.60963867117104
 20
98.71861070602633
 30
0.0
 11
48.60963867117104
 21
22.28651159523462
 31
0.0
  0
LINE
  5
297
330
1F
100
AcDbEntity
  8
S-SECT WOOD
100
AcDbLine
 10
54.10963867117195
 20
70.50118688290798
 30
0.0
 11
54.10963867117195
 21
98.71861070602633
 31
0.0
  0
LINE
  5
298
330
1F
100
AcDbEntity
  8
S-SECT WOOD
100
AcDbLine
 10
78.27232168258806
 20
61.84073384792526
 30
0.0
 11
78.27232168258806
 21
52.33970969866924
 31
0.0
  0
LINE
  5
299
330
1F
100
AcDbEntity
  8
S-SECT WOOD
100
AcDbLine
 10
78.27232168258806
 20
73.11437043185208
 30
0.0
 11
78.27232168258806
 21
63.34073432792241
 31
0.0
  0
TEXT
  5
29A
330
1F
100
AcDbEntity
  8
S-TITLE TEXT
100
AcDbText
 10
14.78308191738597
 20
13.23152324321881
 30
0.0
 40
3.0
  1
EXTERIOR WALL AT FLOOR
  7
HELV
100
AcDbText
  0
LINE
  5
29B
330
1F
100
AcDbEntity
  8
S-TITLE BAR
100
AcDbLine
 10
101.9999999999991
 20
12.0
 30
0.0
 11
14.0
 21
12.0
 31
0.0
  0
TEXT
  5
29C
330
1F
100
AcDbEntity
  8
S-TEXT
100
AcDbText
 10
14.78308191738597
 20
9.39303227626965
 30
0.0
 40
1.5
  1
SCALE: 3/4" = 1'-0"
 41
0.8
  7
SIMPLEX
100
AcDbText
  0
CIRCLE
  5
29D
330
1F
100
AcDbEntity
  8
S-TITLE BAR
100
AcDbCircle
 10
97.78049058875787
 20
12.0
 30
0.0
 40
4.219509411241954
  0
TEXT
  5
29F
330
1F
100
AcDbEntity
  8
S-TEXT
100
AcDbText
 10
96.49581355413193
 20
9.470491388551181
 30
0.0
 40
1.5
  1
S_
 41
0.8
  7
SIMPLEX
100
AcDbText
  0
TEXT
  5
2A0
330
1F
100
AcDbEntity
  8
S-TEXT
100
AcDbText
 10
97.22365807014284
 20
13.21747361034158
 30
0.0
 40
1.5
  1
_
 41
0.8
  7
SIMPLEX
100
AcDbText
  0
LWPOLYLINE
  5
2A1
330
1F
100
AcDbEntity
  8
S-SECT WOOD
100
AcDbPolyline
 90
        4
 70
     1
 43
0.0
 10
48.60963867117104
 20
52.25118688290796
 10
48.60963867117104
 20
50.75118688290796
 10
54.10963867117104
 20
50.75118688290796
 10
54.10963867117104
 20
52.25118688290796
  0
LINE
  5
2A2
330
1F
100
AcDbEntity
  8
S-PATT WOOD
100
AcDbLine
 10
48.60963867117104
 20
52.25118688290796
 30
0.0
 11
54.10963867117104
 21
50.75118688290796
 31
0.0
  0
LINE
  5
2A3
330
1F
100
AcDbEntity
  8
S-PATT WOOD
100
AcDbLine
 10
48.60963867117104
 20
50.75118688290796
 30
0.0
 11
54.10963867117104
 21
52.25118688290796
 31
0.0
  0
LINE
  5
2A4
330
1F
100
AcDbEntity
  8
S-PATT WOOD
100
AcDbLine
 10
48.60963867117104
 20
52.25118688290796
 30
0.0
 11
54.10963867117104
 21
53.75118688290796
 31
0.0
  0
LINE
  5
2A5
330
1F
100
AcDbEntity
  8
S-PATT WOOD
100
AcDbLine
 10
48.60963867117104
 20
53.75118688290796
 30
0.0
 11
54.10963867117104
 21
52.25118688290796
 31
0.0
  0
LWPOLYLINE
  5
2A6
330
1F
100
AcDbEntity
  8
S-SECT WOOD
100
AcDbPolyline
 90
        4
 70
     1
 43
0.0
 10
48.60963867117104
 20
53.75118688290796
 10
48.60963867117104
 20
52.25118688290796
 10
54.10963867117104
 20
52.25118688290796
 10
54.10963867117104
 20
53.75118688290796
  0
LWPOLYLINE
  5
2A7
330
1F
100
AcDbEntity
  8
S-SECT WOOD
100
AcDbPolyline
 90
        6
 70
     0
 43
0.0
 10
50.35174009607627
 20
98.71861070602861
 42
0.2360679774997897
 10
51.85174057607574
 20
100.8852780660309
 42
0.142857142857143
 10
51.01840697607887
 20
98.05194382602623
 42
0.1001593741413037
 10
51.18507369607769
 20
97.2186102260289
 42
0.6650375960586574
 10
51.51840713607717
 20
97.2186102260289
 42
0.0894270040187029
 10
51.85174057607574
 20
98.71861070602861
  0
LINE
  5
2A8
330
1F
100
AcDbEntity
  8
S-SECT WOOD
100
AcDbLine
 10
55.55896421569267
 20
98.71861070602633
 30
0.0
 11
51.85174057607563
 21
98.71861070602633
 31
0.0
  0
LINE
  5
2A9
330
1F
100
AcDbEntity
  8
S-SECT WOOD
100
AcDbLine
 10
50.35174009607445
 20
98.71861070602633
 30
0.0
 11
46.23463867117104
 21
98.71861070602633
 31
0.0
  0
LINE
  5
2AA
330
1F
100
AcDbEntity
  8
S-SECT WOOD
100
AcDbLine
 10
50.35174009607354
 20
22.28651159523462
 30
0.0
 11
46.23463867118629
 21
22.28651159523462
 31
0.0
  0
LINE
  5
2AB
330
1F
100
AcDbEntity
  8
S-SECT WOOD
100
AcDbLine
 10
56.12822606983442
 20
22.28651159523462
 30
0.0
 11
51.85174057607472
 21
22.28651159523462
 31
0.0
  0
LWPOLYLINE
  5
2AC
330
1F
100
AcDbEntity
  8
S-SECT WOOD
100
AcDbPolyline
 90
        6
 70
     0
 43
0.0
 10
50.35174009607536
 20
22.28651159523689
 42
0.2360679774997897
 10
51.85174057607483
 20
24.45317895523918
 42
0.142857142857143
 10
51.01840697607795
 20
21.61984471523453
 42
0.1001593741413037
 10
51.18507369607678
 20
20.7865111152372
 42
0.6650375960586574
 10
51.51840713607626
 20
20.7865111152372
 42
0.0894270040187029
 10
51.85174057607483
 20
22.28651159523689
  0
LWPOLYLINE
  5
2AD
330
1F
100
AcDbEntity
  8
S-SECT WOOD
100
AcDbPolyline
 90
        6
 70
     0
 43
0.0
 10
78.27232168258987
 20
63.34073432792466
 42
0.2360679774997897
 10
80.43898904259217
 20
61.84073384792519
 42
0.142857142857143
 10
77.60565480258751
 20
62.67406744792207
 42
0.1001593741413037
 10
76.77232120259017
 20
62.50740072792324
 42
0.6650375960586574
 10
76.77232120259017
 20
62.17406728792376
 42
0.0894270040187029
 10
78.27232168258987
 20
61.84073384792519
  0
LWPOLYLINE
  5
2AE
330
1F
100
AcDbEntity
  8
S-SECT WOOD
100
AcDbPolyline
 90
        4
 70
     1
 43
0.0
 10
48.60963867117104
 20
72.00118688290797
 10
48.60963867117104
 20
70.50118688290798
 10
54.10963867117104
 20
70.50118688290798
 10
54.10963867117104
 20
72.00118688290797
  0
LINE
  5
2AF
330
1F
100
AcDbEntity
  8
S-PATT WOOD
100
AcDbLine
 10
48.60963867117104
 20
72.00118688290797
 30
0.0
 11
54.10963867117104
 21
70.50118688290798
 31
0.0
  0
LINE
  5
2B0
330
1F
100
AcDbEntity
  8
S-PATT WOOD
100
AcDbLine
 10
48.60963867117104
 20
70.50118688290798
 30
0.0
 11
54.10963867117104
 21
72.00118688290797
 31
0.0
  0
LINE
  5
2B4
330
1F
100
AcDbEntity
  8
S-MISC
100
AcDbLine
 10
55.04670847249551
 20
71.71173902016589
 30
0.0
 11
55.04670847249551
 21
70.96173902016589
 31
0.0
  0
LINE
  5
2B5
330
1F
100
AcDbEntity
  8
S-MISC
100
AcDbLine
 10
55.04670847249551
 20
71.33673902016589
 30
0.0
 11
52.04670847249551
 21
71.33673902016589
 31
0.0
  0
LINE
  5
2B6
330
1F
100
AcDbEntity
  8
S-MISC
100
AcDbLine
 10
47.67256886984656
 20
71.25118688290797
 30
0.0
 11
50.67256886984657
 21
71.25118688290797
 31
0.0
  0
LINE
  5
2B7
330
1F
100
AcDbEntity
  8
S-MISC
100
AcDbLine
 10
47.67256886984656
 20
71.62618688290797
 30
0.0
 11
47.67256886984656
 21
70.87618688290797
 31
0.0
  0
LINE
  5
2B8
330
1F
100
AcDbEntity
  8
S-MISC
100
AcDbLine
 10
47.67256886984656
 20
53.37618688290795
 30
0.0
 11
47.67256886984656
 21
52.62618688290796
 31
0.0
  0
LINE
  5
2B9
330
1F
100
AcDbEntity
  8
S-MISC
100
AcDbLine
 10
47.67256886984656
 20
53.00118688290796
 30
0.0
 11
50.67256886984657
 21
53.00118688290796
 31
0.0
  0
LINE
  5
2BA
330
1F
100
AcDbEntity
  8
S-SECT WOOD
100
AcDbLine
 10
54.73463867117195
 20
70.50118688290798
 30
0.0
 11
54.73463867117195
 21
98.71861070602633
 31
0.0
  0
LINE
  5
2BB
330
1F
100
AcDbEntity
  8
S-SECT WOOD
100
AcDbLine
 10
54.73463867117104
 20
53.75118688290796
 30
0.0
 11
54.73463867117104
 21
22.28651159523462
 31
0.0
  0
LINE
  5
2BC
330
1F
100
AcDbEntity
  8
S-MISC
100
AcDbLine
 10
55.04670847249551
 20
53.00118688290795
 30
0.0
 11
52.04670847249551
 21
53.00118688290795
 31
0.0
  0
LINE
  5
2BD
330
1F
100
AcDbEntity
  8
S-MISC
100
AcDbLine
 10
55.04670847249551
 20
53.37618688290795
 30
0.0
 11
55.04670847249551
 21
52.62618688290795
 31
0.0
  0
INSERT
  5
2BE
330
1F
100
AcDbEntity
  8
S-MISC
100
AcDbBlockReference
  2
TARGET
 10
85.40182848428864
 20
72.00118688290797
 30
0.0
 41
16.0
 42
16.0
 43
16.0
  0
TEXT
  5
2BF
330
1F
100
AcDbEntity
  8
S-TEXT
100
AcDbText
 10
87.23278502876107
 20
72.87104573609951
 30
0.0
 40
1.5
  1
T/SLAB
 41
0.8
  7
SIMPLEX
100
AcDbText
  0
TEXT
  5
2C0
330
1F
100
AcDbEntity
  8
S-TEXT
100
AcDbText
 10
87.23278502876107
 20
69.15147865909256
 30
0.0
 40
1.5
  1
EL. X'-X"
 41
0.8
  7
SIMPLEX
100
AcDbText
  0
LINE
  5
2C1
330
1F
100
AcDbEntity
  8
S-DIMS
100
AcDbLine
 10
79.57427148800056
 20
72.00118688290797
 30
0.0
 11
97.21701276202617
 21
72.00118688290797
 31
0.0
  0
INSERT
  5
2C2
330
1F
100
AcDbEntity
  8
S-ARROW HEAD
100
AcDbBlockReference
  2
axarrow
 10
82.87208803559677
 20
72.00118688290797
 30
0.0
 41
16.0
 42
16.0
 43
16.0
 50
270.0
  0
LINE
  5
2C3
330
1F
100
AcDbEntity
  8
S-DIMS
100
AcDbLine
 10
82.87208803559677
 20
74.68965076397046
 30
0.0
 11
82.87208803559673
 21
53.75118688290797
 31
0.0
  0
LINE
  5
2C4
330
1F
100
AcDbEntity
  8
S-SECT WOOD
100
AcDbLine
 10
48.60963867117104
 20
70.50118688290798
 30
0.0
 11
78.27232168258794
 21
70.50118688290798
 31
0.0
  0
LINE
  5
2C5
330
1F
100
AcDbEntity
  8
S-DIMS
100
AcDbLine
 10
80.67731910166092
 20
69.75118688290797
 30
0.0
 11
83.37208803559676
 21
69.75118688290797
 31
0.0
  0
MTEXT
  5
2C6
330
1F
100
AcDbEntity
  8
S-TEXT
100
AcDbMText
 10
81.22923089273962
 20
77.3498110054604
 30
0.0
 40
1.5
 41
0.0
 71
     5
 72
     1
  1
2 1/4"
  7
SIMPLEX
 11
0.0000000000000001
 21
1.0
 31
0.0
 73
     1
 44
1.0
1001
ACAD
1000
MTEXTBEGIN
1070
    73
1070
     1
1070
    44
1040
1.0
1070
    74
1070
     0
1000
MTEXTEND
  0
LINE
  5
2C7
330
1F
100
AcDbEntity
  8
S-DIMS
100
AcDbLine
 10
79.27232168258806
 20
53.75118688290796
 30
0.0
 11
83.37208803559676
 21
53.75118688290796
 31
0.0
  0
LINE
  5
2C8
330
1F
100
AcDbEntity
  8
S-DIMS
100
AcDbLine
 10
79.27232168258794
 20
69.75118688290797
 30
0.0
 11
83.37208803559676
 21
69.75118688290797
 31
0.0
  0
INSERT
  5
2C9
330
1F
100
AcDbEntity
  8
S-ARROW HEAD
100
AcDbBlockReference
  2
axarrow
 10
82.87208803559677
 20
53.75118688290796
 30
0.0
 41
16.0
 42
16.0
 43
16.0
 50
270.0
  0
INSERT
  5
2CA
330
1F
100
AcDbEntity
  8
S-ARROW HEAD
100
AcDbBlockReference
  2
axarrow
 10
82.87208803559677
 20
69.75118688290797
 30
0.0
 41
16.0
 42
16.0
 43
16.0
 50
90.0
  0
MTEXT
  5
2CB
330
1F
100
AcDbEntity
  8
S-TEXT
100
AcDbMText
 10
81.59879528533251
 20
61.75118688290798
 30
0.0
 40
1.5
 41
0.0
 71
     5
 72
     1
  1
16"
  7
SIMPLEX
 11
0.0000000000000001
 21
1.0
 31
0.0
 73
     1
 44
1.0
1001
ACAD
1000
MTEXTBEGIN
1070
    73
1070
     1
1070
    44
1040
1.0
1070
    74
1070
     0
1000
MTEXTEND
  0
LWPOLYLINE
  5
2CC
330
1F
100
AcDbEntity
  8
S-DIMS
100
AcDbPolyline
 90
        4
 70
     0
 43
0.0
 10
82.87208803559677
 20
70.87618688290797
 10
82.54162142009713
 20
70.87618688290795
 42
-0.4142135623730951
 10
81.04162142009712
 20
72.37618688290796
 10
81.04162142009712
 20
73.87924035006102
  0
MTEXT
  5
2CD
330
1F
100
AcDbEntity
  8
S-TEXT
100
AcDbMText
 10
87.21876245939155
 20
49.63297036321519
 30
0.0
 40
1.5
 41
24.68340806419675
 71
     1
 72
     5
  1
16" TJI JOIST, SEE PLAN
  7
SIMPLEX
 73
     1
 44
1.0
1001
ACAD
1000
MTEXTBEGIN
1070
    73
1070
     1
1070
    44
1040
1.0
1070
    74
1070
     0
1000
MTEXTEND
  0
LINE
  5
2CE
330
1F
100
AcDbEntity
  8
S-SECT WOOD
100
AcDbLine
 10
78.27232168258806
 20
55.25118688290795
 30
0.0
 11
49.95338867117098
 21
55.25118688290798
 31
0.0
  0
LINE
  5
2CF
330
1F
100
AcDbEntity
  8
S-SECT WOOD
100
AcDbLine
 10
78.27232168258794
 20
68.25118688290797
 30
0.0
 11
49.95338867117104
 21
68.25118688290797
 31
0.0
  0
MTEXT
  5
2D0
330
1F
100
AcDbEntity
  8
S-TEXT
100
AcDbMText
 10
87.21876245939155
 20
44.86406276530773
 30
0.0
 40
1.5
 41
22.375
 71
     1
 72
     5
  1
(2)-2x6 TOP PLATES
  7
SIMPLEX
 73
     1
 44
1.0
1001
ACAD
1000
MTEXTBEGIN
1070
    73
1070
     1
1070
    44
1040
1.0
1070
    74
1070
     0
1000
MTEXTEND
  0
MTEXT
  5
2D1
330
1F
100
AcDbEntity
  8
S-TEXT
100
AcDbMText
 10
87.21876245939155
 20
40.56886929466294
 30
0.0
 40
1.5
 41
26.34375
 71
     1
 72
     5
  1
2x6 AT __"o.c. EXTERIOR BEARING WALL, SEE PLAN
  7
SIMPLEX
 73
     1
 44
1.0
1001
ACAD
1000
MTEXTBEGIN
1070
    73
1070
     1
1070
    44
1040
1.0
1070
    74
1070
     0
1000
MTEXTEND
  0
MTEXT
  5
2D2
330
1F
100
AcDbEntity
  8
S-TEXT
100
AcDbMText
 10
87.21876245939155
 20
33.10957482637322
 30
0.0
 40
1.5
 41
30.42128585306097
 71
     1
 72
     5
  1
INTERIOR SHEATHING, SEE PLANS AND NOTES FOR LOCATIONS AND NAILING REQUIREMENTS
  7
SIMPLEX
 73
     1
 44
1.0
1001
ACAD
1000
MTEXTBEGIN
1070
    73
1070
     1
1070
    44
1040
1.0
1070
    74
1070
     0
1000
MTEXTEND
  0
MTEXT
  5
2D3
330
1F
100
AcDbEntity
  8
S-TEXT
100
AcDbMText
 10
87.21876245939155
 20
84.41744598261495
 30
0.0
 40
1.5
 41
22.375
 71
     1
 72
     5
  1
3/4" T&G PLYWOOD FLOORING
  7
SIMPLEX
 73
     1
 44
1.0
1001
ACAD
1000
MTEXTBEGIN
1070
    73
1070
     1
1070
    44
1040
1.0
1070
    74
1070
     0
1000
MTEXTEND
  0
MTEXT
  5
2D4
330
1F
100
AcDbEntity
  8
S-TEXT
100
AcDbMText
 10
87.21876245939155
 20
91.1998660293602
 30
0.0
 40
1.5
 41
23.875
 71
     1
 72
     5
  1
1 1/2" LIGHTWEIGHT CONCRETE TOPPING SLAB
  7
SIMPLEX
 73
     1
 44
1.0
1001
ACAD
1000
MTEXTBEGIN
1070
    73
1070
     1
1070
    44
1040
1.0
1070
    74
1070
     0
1000
MTEXTEND
  0
MTEXT
  5
2D5
330
1F
100
AcDbEntity
  8
S-TEXT
100
AcDbMText
 10
87.21876245939155
 20
97.6543354488626
 30
0.0
 40
1.5
 41
26.34375
 71
     1
 72
     5
  1
2x6 AT __"o.c. EXTERIOR BEARING WALL, SEE PLAN
  7
SIMPLEX
 73
     1
 44
1.0
1001
ACAD
1000
MTEXTBEGIN
1070
    73
1070
     1
1070
    44
1040
1.0
1070
    74
1070
     0
1000
MTEXTEND
  0
MTEXT
  5
2D6
330
1F
100
AcDbEntity
  8
S-TEXT
100
AcDbMText
 10
7.303578535001463
 20
72.0533276428549
 30
0.0
 40
1.5
 41
21.17691363220377
 71
     1
 72
     5
  1
BOUNDARY NAILING
  7
SIMPLEX
 73
     1
 44
1.0
1001
ACAD
1000
MTEXTBEGIN
1070
    73
1070
     1
1070
    44
1040
1.0
1070
    74
1070
     0
1000
MTEXTEND
  0
LINE
  5
2D7
330
1F
100
AcDbEntity
  8
S-DIMS
100
AcDbLine
 10
6.497490100624325
 20
53.75118688290796
 30
0.0
 11
46.68032347783156
 21
53.75118688290796
 31
0.0
  0
TEXT
  5
2D8
330
1F
100
AcDbEntity
  8
S-TEXT
100
AcDbText
 10
7.32844614512058
 20
51.08371957876744
 30
0.0
 40
1.5
  1
EL. X'-X"
 41
0.8
  7
SIMPLEX
100
AcDbText
  0
TEXT
  5
2D9
330
1F
100
AcDbEntity
  8
S-TEXT
100
AcDbText
 10
7.32844614512058
 20
54.6210457360995
 30
0.0
 40
1.5
  1
JOIST BEARING
 41
0.8
  7
SIMPLEX
100
AcDbText
  0
INSERT
  5
2DA
330
1F
100
AcDbEntity
  8
S-MISC
100
AcDbBlockReference
  2
TARGET
 10
5.497489600648151
 20
53.75118688290796
 30
0.0
 41
16.0
 42
16.0
 43
16.0
  0
MTEXT
  5
2DB
330
1F
100
AcDbEntity
  8
S-TEXT
100
AcDbMText
 10
7.303578535001463
 20
46.52883895316428
 30
0.0
 40
1.5
 41
22.77423365520554
 71
     1
 72
     5
  1
BOUNDARY NAILING
  7
SIMPLEX
 73
     1
 44
1.0
1001
ACAD
1000
MTEXTBEGIN
1070
    73
1070
     1
1070
    44
1040
1.0
1070
    74
1070
     0
1000
MTEXTEND
  0
INSERT
  5
2DC
330
1F
100
AcDbEntity
  8
S-ARROW HEAD
100
AcDbBlockReference
  2
axarrow
 10
47.33923553651322
 20
71.25118688290797
 30
0.0
 41
16.0
 42
16.0
 43
16.0
1001
ACAD
1000
DSTYLE
1002
{
1070
   147
1040
0.375
1070
    77
1070
     0
1002
}
  0
MTEXT
  5
2DE
330
1F
100
AcDbEntity
  8
S-TEXT
100
AcDbMText
 10
7.303578535001463
 20
34.23154571635639
 30
0.0
 40
1.5
 41
27.45494128226409
 71
     1
 72
     5
  1
EXTERIOR PLYWOOD SHEATHING, SEE PLANS AND NOTES FOR LOCATIONS AND NAILING REQUIREMENTS
  7
SIMPLEX
 73
     1
 44
1.0
1001
ACAD
1000
MTEXTBEGIN
1070
    73
1070
     1
1070
    44
1040
1.0
1070
    74
1070
     0
1000
MTEXTEND
  0
INSERT
  5
2DF
330
1F
100
AcDbEntity
  8
S-ARROW HEAD
100
AcDbBlockReference
  2
axarrow
 10
47.98463867117104
 20
33.39634491426518
 30
0.0
 41
16.0
 42
16.0
 43
16.0
1001
ACAD
1000
DSTYLE
1002
{
1070
   147
1040
0.375
1070
    77
1070
     0
1002
}
  0
INSERT
  5
2E7
330
1F
100
AcDbEntity
  8
S-ARROW HEAD
100
AcDbBlockReference
  2
axarrow
 10
54.73463867117104
 20
32.46970729652203
 30
0.0
 41
16.0
 42
16.0
 43
16.0
 50
180.0
1001
ACAD
1000
DSTYLE
1002
{
1070
   147
1040
0.375
1070
    77
1070
     0
1002
}
  0
INSERT
  5
2E9
330
1F
100
AcDbEntity
  8
S-ARROW HEAD
100
AcDbBlockReference
  2
axarrow
 10
54.10963867117101
 20
39.46180265415791
 30
0.0
 41
16.0
 42
16.0
 43
16.0
 50
180.0
1001
ACAD
1000
DSTYLE
1002
{
1070
   147
1040
0.375
1070
    77
1070
     0
1002
}
  0
LINE
  5
2EF
330
1F
100
AcDbEntity
  8
S-MISC
100
AcDbLine
 10
47.67256886984656
 20
54.52172690047684
 30
0.0
 11
50.67256886984657
 21
54.52172690047684
 31
0.0
  0
LINE
  5
2F0
330
1F
100
AcDbEntity
  8
S-MISC
100
AcDbLine
 10
47.67256886984656
 20
54.89672690047684
 30
0.0
 11
47.67256886984656
 21
54.14672690047684
 31
0.0
  0
LINE
  5
2F1
330
1F
100
AcDbEntity
  8
S-MISC
100
AcDbLine
 10
47.67256886984656
 20
68.87595209008755
 30
0.0
 11
50.67256886984657
 21
68.87595209008755
 31
0.0
  0
LINE
  5
2F2
330
1F
100
AcDbEntity
  8
S-MISC
100
AcDbLine
 10
47.67256886984656
 20
69.25095209008755
 30
0.0
 11
47.67256886984656
 21
68.50095209008755
 31
0.0
  0
LINE
  5
2F3
330
1F
100
AcDbEntity
  8
S-MISC
100
AcDbLine
 10
50.29545186281047
 20
70.7157245703149
 30
0.0
 11
50.29545186281047
 21
68.68584928786943
 31
0.0
  0
LINE
  5
2F4
330
1F
100
AcDbEntity
  8
S-MISC
100
AcDbLine
 10
50.67045186281046
 20
70.7157245703149
 30
0.0
 11
49.92045186281046
 21
70.7157245703149
 31
0.0
  0
MTEXT
  5
2F6
330
1F
100
AcDbEntity
  8
S-TEXT
100
AcDbMText
 10
7.303578535001463
 20
88.69462717660816
 30
0.0
 40
1.5
 41
21.0
 71
     1
 72
     5
  1
__d NAILS AT __"o.c. PLATE TO BLOCKING
  7
SIMPLEX
 73
     1
 44
1.0
1001
ACAD
1000
MTEXTBEGIN
1070
    73
1070
     1
1070
    44
1040
1.0
1070
    74
1070
     0
1000
MTEXTEND
  0
MTEXT
  5
2FB
330
1F
100
AcDbEntity
  8
S-TEXT
100
AcDbMText
 10
7.303578535001463
 20
65.75633020818682
 30
0.0
 40
1.5
 41
21.0
 71
     1
 72
     5
  1
TJI BLOCKING PANELS BETWEEN JOISTS
  7
SIMPLEX
 73
     1
 44
1.0
1001
ACAD
1000
MTEXTBEGIN
1070
    73
1070
     1
1070
    44
1040
1.0
1070
    74
1070
     0
1000
MTEXTEND
  0
LINE
  5
2FC
330
1F
100
AcDbEntity
  8
S-SECT WOOD
100
AcDbLine
 10
50.92213867117104
 20
67.25118688290797
 30
0.0
 11
49.95338867117101
 21
67.25118688290797
 31
0.0
  0
LINE
  5
2FD
330
1F
100
AcDbEntity
  8
S-SECT WOOD
100
AcDbLine
 10
50.92213867117104
 20
67.25118688290797
 30
0.0
 11
50.92213867117107
 21
53.75118688290796
 31
0.0
  0
LINE
  5
2FE
330
1F
100
AcDbEntity
  8
S-SECT WOOD
100
AcDbLine
 10
49.57838867117101
 20
67.25118688290797
 30
0.0
 11
48.60963867117104
 21
67.25118688290797
 31
0.0
  0
INSERT
  5
2FF
330
1F
100
AcDbEntity
  8
S-ARROW HEAD
100
AcDbBlockReference
  2
axarrow
 10
49.57838867117101
 20
62.50453195837412
 30
0.0
 41
16.0
 42
16.0
 43
16.0
1001
ACAD
1000
DSTYLE
1002
{
1070
   147
1040
0.375
1070
    77
1070
     0
1002
}
  0
LINE
  5
301
330
1F
100
AcDbEntity
  8
S-SECT CONC
100
AcDbLine
 10
54.73463867117195
 20
72.00118688290797
 30
0.0
 11
78.27232168258794
 21
72.00118688290797
 31
0.0
  0
HATCH
  5
302
330
1F
100
AcDbEntity
  8
S-PATT CONC
100
AcDbHatch
 10
0.0
 20
0.0
 30
0.0
210
0.0
220
0.0
230
1.0
  2
AR-CONC
 70
     0
 71
     0
 91
        2
 92
        7
 72
     0
 73
     1
 93
        6
 10
78.27232168258806
 20
72.00118688290797
 10
72.09502328243956
 20
72.00118688290797
 10
72.07426014917811
 20
71.93410938311903
 10
72.43249077423087
 20
71.82322286782389
 10
71.66592465396113
 20
70.50118688290798
 10
78.27232168258806
 20
70.50118688290798
 97
        0
 92
        7
 72
     0
 73
     1
 93
        4
 10
71.71274169678378
 20
72.00118688290797
 10
54.10963867117104
 20
72.00118688290797
 10
54.10963867117104
 20
70.50118688290798
 10
71.60016804144561
 20
70.50118688290798
 97
        0
 75
     0
 76
     1
 52
0.0
 41
1.0
 77
     0
 78
    13
 53
50.0
 43
22.01757081771319
 44
15.82425807316823
 45
7.172601826007533
 46
-0.6275213498259511
 79
     2
 49
0.7500000000000001
 49
-8.25
 53
355.0
 43
22.01757081771319
 44
15.82425807316823
 45
-1.387513336129999
 46
7.521921337000117
 79
     2
 49
0.6000000000000001
 49
-6.599999999999999
 53
100.4514
 43
22.6152876177132
 44
15.77196467316823
 45
5.785093817140215
 46
6.894395420609535
 79
     2
 49
0.6374018999999988
 49
-7.011421119999987
 53
46.1842
 43
22.01757081771319
 44
17.82425807316823
 45
10.67241048625644
 46
-1.655190143290181
 79
     2
 49
1.125
 49
-12.375
 53
96.63559999999998
 43
22.9069382677132
 44
17.68632500316823
 45
9.346627055487033
 46
9.741178709004417
 79
     2
 49
0.9561028799999988
 49
-10.51712999999998
 53
351.1842000000001
 43
22.01757081771319
 44
17.82425807316823
 45
9.34661945133627
 46
9.741186009253244
 79
     2
 49
0.9000000000000005
 49
-9.900000000000007
 53
21.0
 43
23.01757081771319
 44
17.32425807316823
 45
5.969070521184616
 46
-4.026188906653388
 79
     2
 49
0.75
 49
-8.25
 53
326.0
 43
23.01757081771319
 44
17.32425807316823
 45
2.433153319215817
 46
7.25150045046853
 79
     2
 49
0.5999999999999998
 49
-6.599999999999997
 53
71.45140000000001
 43
23.5149931477132
 44
16.98874201316823
 45
8.402226285814899
 46
3.225304967099523
 79
     2
 49
0.6374019000000001
 49
-7.011421119999998
 53
37.5
 43
22.01757081771319
 44
15.82425807316823
 45
0.1215985531729067
 46
3.328938538313114
 79
     6
 49
0.0
 49
-6.52
 49
0.0
 49
-6.7
 49
0.0
 49
-6.625
 53
7.499999999999999
 43
22.01757081771319
 44
15.82425807316823
 45
2.630695374421486
 46
3.944117118823602
 79
     6
 49
0.0
 49
-3.819999999999998
 49
0.0
 49
-6.369999999999997
 49
0.0
 49
-2.524999999999999
 53
327.5
 43
19.7875708177132
 44
15.82425807316823
 45
5.338224361724089
 46
-0.225548717343798
 79
     6
 49
0.0
 49
-2.5
 49
0.0
 49
-7.799999999999998
 49
0.0
 49
-10.35
 53
317.5
 43
18.7875708177132
 44
15.82425807316823
 45
5.831861693423862
 46
1.001049823323176
 79
     6
 49
0.0
 49
-3.25
 49
0.0
 49
-5.179999999999999
 49
0.0
 49
-7.349999999999998
 47
0.0907818455187685
 98
        2
 10
77.40868488699229
 20
71.76270946963763
 10
64.32311359707305
 20
71.21801759717363
  0
MTEXT
  5
303
330
1F
100
AcDbEntity
  8
S-TEXT
100
AcDbMText
 10
87.21876245939155
 20
66.68522743296844
 30
0.0
 40
1.5
 41
24.0498281393802
 71
     1
 72
     5
  1
WEB STIFFENER EACH SIDE OF TJI AT BEARING
  7
SIMPLEX
 73
     1
 44
1.0
1001
ACAD
1000
MTEXTBEGIN
1070
    73
1070
     1
1070
    44
1040
1.0
1070
    74
1070
     0
1000
MTEXTEND
  0
INSERT
  5
304
330
1F
100
AcDbEntity
  8
S-ARROW HEAD
100
AcDbBlockReference
  2
axarrow
 10
50.92213867117104
 20
65.87077522929366
 30
0.0
 41
16.0
 42
16.0
 43
16.0
 50
180.0
1001
ACAD
1000
DSTYLE
1002
{
1070
   147
1040
0.375
1070
    77
1070
     0
1002
}
  0
LWPOLYLINE
  5
305
330
1F
100
AcDbEntity
  8
S-LEADER
100
AcDbPolyline
 90
        2
 70
     0
 43
0.0
 10
51.25547200450438
 20
65.87077522929366
 10
86.29915694222139
 20
65.87077522929366
1001
ACAD
1000
DSTYLE
1002
{
1070
   147
1040
0.375
1070
    77
1070
     0
1002
}
  0
MTEXT
  5
306
330
1F
100
AcDbEntity
  8
S-TEXT
100
AcDbMText
 10
7.303578535001463
 20
81.92567933987424
 30
0.0
 40
1.5
 41
21.0
 71
     1
 72
     5
  1
DIAPHRAGM BOUNDARY NAILING
  7
SIMPLEX
 73
     1
 44
1.0
1001
ACAD
1000
MTEXTBEGIN
1070
    73
1070
     1
1070
    44
1040
1.0
1070
    74
1070
     0
1000
MTEXTEND
  0
MTEXT
  5
309
330
1F
100
AcDbEntity
  8
S-TEXT
100
AcDbMText
 10
87.63546258714063
 20
59.9905877149184
 30
0.0
 40
1.5
 41
23.56268426755341
 71
     1
 72
     5
  1
__d NAILS AT __"o.c. BLOCKING TO TOP PLATE
  7
SIMPLEX
 73
     1
 44
1.0
1001
ACAD
1000
MTEXTBEGIN
1070
    73
1070
     1
1070
    44
1040
1.0
1070
    74
1070
     0
1000
MTEXTEND
  0
LINE
  5
310
330
1F
100
AcDbEntity
  8
S-SECT WOOD
100
AcDbLine
 10
49.95338867117104
 20
68.75118688290794
 30
0.0
 11
49.95338867117098
 21
54.75118688290795
 31
0.0
  0
LINE
  5
311
330
1F
100
AcDbEntity
  8
S-SECT WOOD
100
AcDbLine
 10
49.57838867117104
 20
68.75118688290794
 30
0.0
 11
49.57838867117098
 21
54.75118688290795
 31
0.0
  0
LINE
  5
312
330
1F
100
AcDbEntity
  8
S-SECT WOOD
100
AcDbLine
 10
49.57838867117098
 20
54.75118688290795
 30
0.0
 11
49.95338867117098
 21
54.75118688290795
 31
0.0
  0
LINE
  5
313
330
1F
100
AcDbEntity
  8
S-SECT WOOD
100
AcDbLine
 10
48.60963867117104
 20
53.75118688290794
 30
0.0
 11
50.92213867117104
 21
53.75118688290794
 31
0.0
  0
LINE
  5
314
330
1F
100
AcDbEntity
  8
S-SECT WOOD
100
AcDbLine
 10
48.60963867117098
 20
55.25118688290792
 30
0.0
 11
48.60963867117098
 21
53.75118688290792
 31
0.0
  0
LINE
  5
315
330
1F
100
AcDbEntity
  8
S-SECT WOOD
100
AcDbLine
 10
48.60963867117098
 20
55.25118688290792
 30
0.0
 11
49.57838867117098
 21
55.25118688290792
 31
0.0
  0
LINE
  5
316
330
1F
100
AcDbEntity
  8
S-SECT WOOD
100
AcDbLine
 10
50.92213867117104
 20
55.25118688290788
 30
0.0
 11
50.92213867117104
 21
53.75118688290789
 31
0.0
  0
LINE
  5
317
330
1F
100
AcDbEntity
  8
S-SECT WOOD
100
AcDbLine
 10
49.95338867117104
 20
55.25118688290795
 30
0.0
 11
50.92213867117104
 21
55.25118688290788
 31
0.0
  0
LINE
  5
318
330
1F
100
AcDbEntity
  8
S-SECT WOOD
100
AcDbLine
 10
49.57838867117104
 20
68.75118688290794
 30
0.0
 11
49.95338867117104
 21
68.75118688290794
 31
0.0
  0
LINE
  5
319
330
1F
100
AcDbEntity
  8
S-SECT WOOD
100
AcDbLine
 10
48.60963867117104
 20
69.75118688290797
 30
0.0
 11
50.92213867117104
 21
69.75118688290795
 31
0.0
  0
LINE
  5
31A
330
1F
100
AcDbEntity
  8
S-SECT WOOD
100
AcDbLine
 10
48.60963867117104
 20
69.75118688290797
 30
0.0
 11
48.60963867117104
 21
68.25118688290797
 31
0.0
  0
LINE
  5
31B
330
1F
100
AcDbEntity
  8
S-SECT WOOD
100
AcDbLine
 10
48.60963867117104
 20
68.25118688290794
 30
0.0
 11
49.57838867117104
 21
68.25118688290796
 31
0.0
  0
LINE
  5
31C
330
1F
100
AcDbEntity
  8
S-SECT WOOD
100
AcDbLine
 10
49.95338867117104
 20
68.25118688290796
 30
0.0
 11
50.92213867117104
 21
68.25118688290794
 31
0.0
  0
LINE
  5
31D
330
1F
100
AcDbEntity
  8
S-SECT WOOD
100
AcDbLine
 10
50.92213867117104
 20
69.75118688290795
 30
0.0
 11
50.92213867117104
 21
68.25118688290796
 31
0.0
  0
LINE
  5
31E
330
1F
100
AcDbEntity
  8
S-SECT WOOD
100
AcDbLine
 10
49.57838867117104
 20
68.25118688290797
 30
0.0
 11
48.60963867117104
 21
68.25118688290797
 31
0.0
  0
LINE
  5
31F
330
1F
100
AcDbEntity
  8
S-SECT WOOD
100
AcDbLine
 10
49.57838867117098
 20
55.25118688290798
 30
0.0
 11
48.60963867117104
 21
55.25118688290798
 31
0.0
  0
INSERT
  5
320
330
1F
100
AcDbEntity
  8
S-ARROW HEAD
100
AcDbBlockReference
  2
axarrow
 10
50.99430239830559
 20
55.32562095098326
 30
0.0
 41
16.0
 42
16.0
 43
16.0
 50
229.804874852343
1001
ACAD
1000
DSTYLE
1002
{
1070
   147
1040
0.375
1070
    77
1070
     0
1002
}
  0
LWPOLYLINE
  5
321
330
1F
100
AcDbEntity
  8
S-LEADER
100
AcDbPolyline
 90
        3
 70
     0
 43
0.0
 10
51.0301575483013
 20
55.36805711447468
 10
53.91857565302922
 20
58.78662830824805
 10
86.70385264130818
 20
58.78662830824805
1001
ACAD
1000
DSTYLE
1002
{
1070
   147
1040
0.375
1070
    77
1070
     0
1002
}
  0
HATCH
  5
32C
330
1F
100
AcDbEntity
  8
S-PATT WOOD
100
AcDbHatch
 10
0.0
 20
0.0
 30
0.0
210
0.0
220
0.0
230
1.0
  2
ANSI32
 70
     0
 71
     0
 91
        2
 92
        7
 72
     0
 73
     1
 93
        8
 10
78.27232168258806
 20
70.50118688290798
 10
71.66592465396115
 20
70.501186882908
 10
71.66056664008519
 20
70.49194633996669
 10
71.63071408799743
 20
70.50118688290798
 10
50.45878118566372
 20
70.50118688290798
 10
50.45878118566372
 20
69.75118688290795
 10
50.92213867117104
 20
69.75118688290795
 10
78.27232168258806
 20
69.75118688290797
 97
        0
 92
        7
 72
     0
 73
     1
 93
        4
 10
50.45878118566372
 20
70.50118688290798
 10
48.60963867117104
 20
70.50118688290798
 10
48.60963867117104
 20
69.75118688290796
 10
50.45878118566372
 20
69.75118688290796
 97
        0
 75
     0
 76
     1
 52
0.0
 41
4.0
 77
     0
 78
     2
 53
45.0
 43
8.389838504835779
 44
5.731848183704926
 45
-1.060660171779821
 46
1.060660171779821
 79
     0
 53
45.0
 43
9.096945284835783
 44
5.731848183704926
 45
-1.060660171779821
 46
1.060660171779821
 79
     0
 47
0.0468382346416407
 98
        2
 10
65.11537293361417
 20
70.08636006613521
 10
49.55358174198036
 20
70.08636006613521
  0
HATCH
  5
32D
330
1F
100
AcDbEntity
  8
S-PATT WOOD
100
AcDbHatch
 10
0.0
 20
0.0
 30
0.0
210
0.0
220
0.0
230
1.0
  2
ANSI32
 70
     0
 71
     0
 91
        9
 92
        7
 72
     0
 73
     1
 93
        4
 10
48.60963867117104
 20
53.00118688290796
 10
47.98463867117104
 20
53.00118688290796
 10
47.98463867117104
 20
30.28651159523462
 10
48.60963867117104
 20
30.28651159523462
 97
        0
 92
        7
 72
     0
 73
     1
 93
        4
 10
48.60963867117104
 20
98.71861070602633
 10
47.98463867117104
 20
98.71861070602633
 10
47.98463867117101
 20
84.74649936624308
 10
48.60963867117104
 20
83.22757496990478
 97
        0
 92
        7
 72
     0
 73
     1
 93
        4
 10
48.60963867117104
 20
83.22757496990478
 10
47.98463867117104
 20
84.74649936624308
 10
47.98463867117104
 20
82.04219706983955
 10
48.60963867117104
 20
80.4605285167041
 97
        0
 92
        7
 72
     0
 73
     1
 93
        5
 10
48.60963867117104
 20
80.46052851670408
 10
47.98463867117104
 20
82.04219706983959
 10
47.98463867117106
 20
74.15962183247663
 10
48.60963867117106
 20
73.14411266386892
 10
48.60963867117104
 20
73.50118688290797
 97
        0
 92
        7
 72
     0
 73
     1
 93
        5
 10
48.60963867117104
 20
73.14411266386894
 10
47.98463867117104
 20
74.15962183247664
 10
47.98463867117104
 20
71.25118688290797
 10
48.60963867117104
 20
71.25118688290799
 10
48.60963867117104
 20
72.00118688290797
 97
        0
 92
        7
 72
     0
 73
     1
 93
        5
 10
48.60963867117106
 20
71.25118688290797
 10
47.98463867117104
 20
71.25118688290797
 10
47.98463867117104
 20
68.87595209008755
 10
48.60963867117104
 20
68.87595209008754
 10
48.60963867117104
 20
69.75118688290797
 97
        0
 92
        7
 72
     0
 73
     1
 93
        6
 10
48.60963867117104
 20
68.87595209008757
 10
47.98463867117104
 20
68.87595209008755
 10
47.98463867117104
 20
62.50453195837412
 10
48.07838867117101
 20
62.50453195837412
 10
48.07838867117101
 20
62.87953195837411
 10
48.60963867117104
 20
62.75778716670744
 97
        0
 92
        7
 72
     0
 73
     1
 93
        7
 10
48.60963867117106
 20
62.2512767500408
 10
48.07838867117101
 20
62.12953195837411
 10
48.07838867117101
 20
62.50453195837412
 10
47.98463867117104
 20
62.50453195837412
 10
47.98463867117104
 20
54.52172690047684
 10
48.60963867117098
 20
54.52172690047684
 10
48.60963867117098
 20
55.25118688290792
 97
        0
 92
        7
 72
     0
 73
     1
 93
        5
 10
48.60963867117098
 20
54.52172690047685
 10
47.98463867117104
 20
54.52172690047684
 10
47.98463867117104
 20
53.00118688290795
 10
48.60963867117106
 20
53.00118688290795
 10
48.60963867117104
 20
53.75118688290796
 97
        0
 75
     0
 76
     1
 52
0.0
 41
4.0
 77
     0
 78
     2
 53
45.0
 43
8.389838504835779
 44
5.731848183704926
 45
-1.060660171779821
 46
1.060660171779821
 79
     0
 53
45.0
 43
9.096945284835783
 44
5.731848183704926
 45
-1.060660171779821
 46
1.060660171779821
 79
     0
 47
0.134374109808039
 98
        9
 10
48.28644522884648
 20
39.09047742129188
 10
48.28644522884648
 20
88.00265352974484
 10
48.28644522884648
 20
82.76206320314917
 10
48.42091877413489
 20
78.59646568002749
 10
48.28644522884648
 20
72.28088254995781
 10
48.28644522884648
 20
70.13089666990315
 10
48.28644522884648
 20
65.56217698203209
 10
48.42091877413489
 20
59.78409025369943
 10
48.28644522884648
 20
53.87162928837914
  0
HATCH
  5
35D
330
1F
100
AcDbEntity
  8
Current Status
100
AcDbHatch
 10
0.0
 20
0.0
 30
0.0
210
0.0
220
0.0
230
1.0
  2
SOLID
 70
     1
 71
     1
 91
        1
 92
        7
 72
     0
 73
     1
 93
        4
 10
114.0
 20
3.999999999999999
 10
112.0
 20
3.999999999999943
 10
112.0
 20
1.999999999999943
 10
114.0
 20
1.999999999999943
 97
        4
330
360
330
35E
330
35F
330
361
 75
     0
 76
     1
 47
0.0007617239145972
 98
        1
 10
113.21410494224
 20
2.953935160056858
  0
LINE
  5
35E
102
{ACAD_REACTORS
330
35D
102
}
330
1F
100
AcDbEntity
  8
Current Status
100
AcDbLine
 10
112.0
 20
3.999999999999943
 30
0.0
 11
112.0
 21
1.999999999999943
 31
0.0
  0
LINE
  5
35F
102
{ACAD_REACTORS
330
35D
102
}
330
1F
100
AcDbEntity
  8
Current Status
100
AcDbLine
 10
112.0
 20
1.999999999999943
 30
0.0
 11
114.0000000000001
 21
1.999999999999943
 31
0.0
  0
LINE
  5
360
102
{ACAD_REACTORS
330
35D
102
}
330
1F
100
AcDbEntity
  8
Current Status
100
AcDbLine
 10
112.0
 20
3.999999999999943
 30
0.0
 11
114.0000000000001
 21
4.0
 31
0.0
  0
LINE
  5
361
102
{ACAD_REACTORS
330
35D
102
}
330
1F
100
AcDbEntity
  8
Current Status
100
AcDbLine
 10
114.0
 20
4.0
 30
0.0
 11
114.0
 21
1.999999999999943
 31
0.0
  0
LINE
  5
3A1
330
1F
100
AcDbEntity
  8
Review Text Box
100
AcDbLine
 10
10.73293909060865
 20
53.2055851129524
 30
0.0
 11
15.73293909060874
 21
53.2055851129524
 31
0.0
  0
ARC
  5
3A2
330
1F
100
AcDbEntity
  8
Review Text Box
100
AcDbCircle
 10
10.73293909060865
 20
52.70558511295241
 30
0.0
 40
0.5
100
AcDbArc
 50
90.0
 51
180.0000000000032
  0
LINE
  5
3A3
330
1F
100
AcDbEntity
  8
Review Text Box
100
AcDbLine
 10
16.23293909060874
 20
52.70558511295238
 30
0.0
 11
16.23293909060864
 21
50.95558511295235
 31
0.0
  0
ARC
  5
3A4
330
1F
100
AcDbEntity
  8
Review Text Box
100
AcDbCircle
 10
15.73293909060874
 20
52.70558511295241
 30
0.0
 40
0.5
100
AcDbArc
 50
359.9999999999968
 51
90.0
  0
LINE
  5
3A5
330
1F
100
AcDbEntity
  8
Review Text Box
100
AcDbLine
 10
10.73293909060874
 20
50.45558511295235
 30
0.0
 11
15.73293909060864
 21
50.45558511295235
 31
0.0
  0
ARC
  5
3A6
330
1F
100
AcDbEntity
  8
Review Text Box
100
AcDbCircle
 10
15.73293909060864
 20
50.95558511295235
 30
0.0
 40
0.5
100
AcDbArc
 50
270.0
 51
359.9999999999974
  0
ARC
  5
3A7
330
1F
100
AcDbEntity
  8
Review Text Box
100
AcDbCircle
 10
10.73293909060874
 20
50.95558511295235
 30
0.0
 40
0.5
100
AcDbArc
 50
180.0000000000025
 51
270.0
  0
LINE
  5
3A8
330
1F
100
AcDbEntity
  8
Review Text Box
100
AcDbLine
 10
10.23293909060865
 20
52.70558511295238
 30
0.0
 11
10.23293909060874
 21
50.95558511295235
 31
0.0
  0
LINE
  5
3A9
330
1F
100
AcDbEntity
  8
Review Text Box
100
AcDbLine
 10
87.08405619060769
 20
84.69915086455996
 30
0.0
 11
91.32044287059528
 21
84.69915086455996
 31
0.0
  0
ARC
  5
3AA
330
1F
100
AcDbEntity
  8
Review Text Box
100
AcDbCircle
 10
87.08405619060769
 20
84.19915086455995
 30
0.0
 40
0.5
100
AcDbArc
 50
90.0
 51
180.0000000000032
  0
LINE
  5
3AB
330
1F
100
AcDbEntity
  8
Review Text Box
100
AcDbLine
 10
91.82044287059529
 20
84.19915086455992
 30
0.0
 11
91.82044287059518
 21
82.44915086455989
 31
0.0
  0
ARC
  5
3AC
330
1F
100
AcDbEntity
  8
Review Text Box
100
AcDbCircle
 10
91.32044287059528
 20
84.19915086455995
 30
0.0
 40
0.5
100
AcDbArc
 50
359.9999999999968
 51
90.0
  0
LINE
  5
3AD
330
1F
100
AcDbEntity
  8
Review Text Box
100
AcDbLine
 10
87.0840561906078
 20
81.9491508645599
 30
0.0
 11
91.32044287059519
 21
81.9491508645599
 31
0.0
  0
ARC
  5
3AE
330
1F
100
AcDbEntity
  8
Review Text Box
100
AcDbCircle
 10
91.32044287059519
 20
82.44915086455989
 30
0.0
 40
0.5
100
AcDbArc
 50
270.0
 51
359.9999999999974
  0
ARC
  5
3AF
330
1F
100
AcDbEntity
  8
Review Text Box
100
AcDbCircle
 10
87.0840561906078
 20
82.44915086455989
 30
0.0
 40
0.5
100
AcDbArc
 50
180.0000000000025
 51
270.0
  0
LINE
  5
3B0
330
1F
100
AcDbEntity
  8
Review Text Box
100
AcDbLine
 10
86.5840561906077
 20
84.19915086455992
 30
0.0
 11
86.58405619060779
 21
82.44915086455989
 31
0.0
  0
LINE
  5
3B1
330
1F
100
AcDbEntity
  8
Review Text Box
100
AcDbLine
 10
90.76693314864284
 20
71.36504033043371
 30
0.0
 11
95.76693314864291
 21
71.36504033043371
 31
0.0
  0
ARC
  5
3B2
330
1F
100
AcDbEntity
  8
Review Text Box
100
AcDbCircle
 10
90.76693314864284
 20
70.86504033043372
 30
0.0
 40
0.5
100
AcDbArc
 50
90.0
 51
180.0000000000032
  0
LINE
  5
3B3
330
1F
100
AcDbEntity
  8
Review Text Box
100
AcDbLine
 10
96.26693314864292
 20
70.86504033043368
 30
0.0
 11
96.26693314864283
 21
69.11504033043366
 31
0.0
  0
ARC
  5
3B4
330
1F
100
AcDbEntity
  8
Review Text Box
100
AcDbCircle
 10
95.76693314864291
 20
70.86504033043372
 30
0.0
 40
0.5
100
AcDbArc
 50
359.9999999999968
 51
90.0
  0
LINE
  5
3B5
330
1F
100
AcDbEntity
  8
Review Text Box
100
AcDbLine
 10
90.76693314864293
 20
68.61504033043366
 30
0.0
 11
95.76693314864282
 21
68.61504033043366
 31
0.0
  0
ARC
  5
3B6
330
1F
100
AcDbEntity
  8
Review Text Box
100
AcDbCircle
 10
95.76693314864282
 20
69.11504033043366
 30
0.0
 40
0.5
100
AcDbArc
 50
270.0
 51
359.9999999999974
  0
ARC
  5
3B7
330
1F
100
AcDbEntity
  8
Review Text Box
100
AcDbCircle
 10
90.76693314864293
 20
69.11504033043366
 30
0.0
 40
0.5
100
AcDbArc
 50
180.0000000000025
 51
270.0
  0
LINE
  5
3B8
330
1F
100
AcDbEntity
  8
Review Text Box
100
AcDbLine
 10
90.26693314864283
 20
70.86504033043368
 30
0.0
 11
90.26693314864294
 21
69.11504033043366
 31
0.0
  0
LINE
  5
3B9
330
1F
100
AcDbEntity
  8
Review Text Box
100
AcDbLine
 10
87.20385264130815
 20
60.20428531902615
 30
0.0
 11
91.14732558789404
 21
60.20428531902616
 31
0.0
  0
ARC
  5
3BA
330
1F
100
AcDbEntity
  8
Review Text Box
100
AcDbCircle
 10
87.20385264130815
 20
59.70428531902616
 30
0.0
 40
0.5
100
AcDbArc
 50
90.0
 51
180.0000000000032
  0
LINE
  5
3BB
330
1F
100
AcDbEntity
  8
Review Text Box
100
AcDbLine
 10
91.64732558789404
 20
59.70428531902612
 30
0.0
 11
91.64732558789394
 21
57.9542853190261
 31
0.0
  0
ARC
  5
3BC
330
1F
100
AcDbEntity
  8
Review Text Box
100
AcDbCircle
 10
91.14732558789404
 20
59.70428531902616
 30
0.0
 40
0.5
100
AcDbArc
 50
359.9999999999968
 51
90.0
  0
LINE
  5
3BD
330
1F
100
AcDbEntity
  8
Review Text Box
100
AcDbLine
 10
87.20385264130824
 20
57.4542853190261
 30
0.0
 11
91.14732558789395
 21
57.4542853190261
 31
0.0
  0
ARC
  5
3BE
330
1F
100
AcDbEntity
  8
Review Text Box
100
AcDbCircle
 10
91.14732558789395
 20
57.9542853190261
 30
0.0
 40
0.5
100
AcDbArc
 50
270.0
 51
359.9999999999974
  0
ARC
  5
3BF
330
1F
100
AcDbEntity
  8
Review Text Box
100
AcDbCircle
 10
87.20385264130824
 20
57.9542853190261
 30
0.0
 40
0.5
100
AcDbArc
 50
180.0000000000025
 51
270.0
  0
LINE
  5
3C0
330
1F
100
AcDbEntity
  8
Review Text Box
100
AcDbLine
 10
86.70385264130814
 20
59.70428531902612
 30
0.0
 11
86.70385264130825
 21
57.9542853190261
 31
0.0
  0
LINE
  5
3C1
330
1F
100
AcDbEntity
  8
Review Text Box
100
AcDbLine
 10
101.8949741184383
 20
60.3863348188367
 30
0.0
 11
108.8130505436129
 21
60.3863348188367
 31
0.0
  0
ARC
  5
3C2
330
1F
100
AcDbEntity
  8
Review Text Box
100
AcDbCircle
 10
101.8949741184383
 20
59.8863348188367
 30
0.0
 40
0.5
100
AcDbArc
 50
90.0
 51
180.0000000000032
  0
LINE
  5
3C3
330
1F
100
AcDbEntity
  8
Review Text Box
100
AcDbLine
 10
109.3130505436129
 20
59.88633481883667
 30
0.0
 11
109.3130505436128
 21
58.13633481883664
 31
0.0
  0
ARC
  5
3C4
330
1F
100
AcDbEntity
  8
Review Text Box
100
AcDbCircle
 10
108.8130505436129
 20
59.8863348188367
 30
0.0
 40
0.5
100
AcDbArc
 50
359.9999999999968
 51
90.0
  0
LINE
  5
3C5
330
1F
100
AcDbEntity
  8
Review Text Box
100
AcDbLine
 10
101.8949741184384
 20
57.63633481883664
 30
0.0
 11
108.8130505436128
 21
57.63633481883664
 31
0.0
  0
ARC
  5
3C6
330
1F
100
AcDbEntity
  8
Review Text Box
100
AcDbCircle
 10
108.8130505436128
 20
58.13633481883664
 30
0.0
 40
0.5
100
AcDbArc
 50
270.0
 51
359.9999999999974
  0
ARC
  5
3C7
330
1F
100
AcDbEntity
  8
Review Text Box
100
AcDbCircle
 10
101.8949741184384
 20
58.13633481883664
 30
0.0
 40
0.5
100
AcDbArc
 50
180.0000000000025
 51
270.0
  0
LINE
  5
3C8
330
1F
100
AcDbEntity
  8
Review Text Box
100
AcDbLine
 10
101.3949741184383
 20
59.88633481883667
 30
0.0
 11
101.3949741184384
 21
58.13633481883664
 31
0.0
  0
LINE
  5
3D4
330
1F
100
AcDbEntity
  8
S-SECT WOOD
100
AcDbLine
 10
48.60963867117104
 20
73.50118688290797
 30
0.0
 11
48.60963867117104
 21
72.00118688290797
 31
0.0
  0
LINE
  5
3D5
330
1F
100
AcDbEntity
  8
S-SECT WOOD
100
AcDbLine
 10
48.60963867117104
 20
72.00118688290797
 30
0.0
 11
54.10963867117104
 21
72.00118688290797
 31
0.0
  0
LINE
  5
3D6
330
1F
100
AcDbEntity
  8
S-SECT WOOD
100
AcDbLine
 10
54.10963867117104
 20
72.00118688290797
 30
0.0
 11
54.10963867117104
 21
73.50118688290797
 31
0.0
  0
LINE
  5
3D8
330
1F
100
AcDbEntity
  8
S-MISC
100
AcDbLine
 10
50.28423092406846
 20
72.3976403158498
 30
0.0
 11
51.03423092406846
 21
72.3976403158498
 31
0.0
  0
LINE
  5
3D9
330
1F
100
AcDbEntity
  8
S-MISC
100
AcDbLine
 10
50.65923092406847
 20
72.3976403158498
 30
0.0
 11
50.65923092406847
 21
69.3976403158498
 31
0.0
  0
LINE
  5
3DA
330
1F
100
AcDbEntity
  8
S-MISC
100
AcDbLine
 10
50.05285726463035
 20
55.64764031584981
 30
0.0
 11
50.80285726463035
 21
55.64764031584981
 31
0.0
  0
LINE
  5
3DB
330
1F
100
AcDbEntity
  8
S-MISC
100
AcDbLine
 10
50.42785726463034
 20
55.64764031584981
 30
0.0
 11
50.42785726463034
 21
52.64764031584981
 31
0.0
  0
LINE
  5
3DC
330
1F
100
AcDbEntity
  8
Review Text Box
100
AcDbLine
 10
94.55595942119456
 20
98.06101699683672
 30
0.0
 11
101.4740358463691
 21
98.06101699683672
 31
0.0
  0
ARC
  5
3DD
330
1F
100
AcDbEntity
  8
Review Text Box
100
AcDbCircle
 10
94.55595942119456
 20
97.56101699683672
 30
0.0
 40
0.5
100
AcDbArc
 50
90.0
 51
180.0000000000032
  0
LINE
  5
3DE
330
1F
100
AcDbEntity
  8
Review Text Box
100
AcDbLine
 10
101.9740358463691
 20
97.56101699683668
 30
0.0
 11
101.974035846369
 21
95.81101699683665
 31
0.0
  0
ARC
  5
3DF
330
1F
100
AcDbEntity
  8
Review Text Box
100
AcDbCircle
 10
101.4740358463691
 20
97.56101699683672
 30
0.0
 40
0.5
100
AcDbArc
 50
359.9999999999968
 51
90.0
  0
LINE
  5
3E0
330
1F
100
AcDbEntity
  8
Review Text Box
100
AcDbLine
 10
94.55595942119465
 20
95.31101699683665
 30
0.0
 11
101.474035846369
 21
95.31101699683665
 31
0.0
  0
ARC
  5
3E1
330
1F
100
AcDbEntity
  8
Review Text Box
100
AcDbCircle
 10
101.474035846369
 20
95.81101699683665
 30
0.0
 40
0.5
100
AcDbArc
 50
270.0
 51
359.9999999999974
  0
ARC
  5
3E2
330
1F
100
AcDbEntity
  8
Review Text Box
100
AcDbCircle
 10
94.55595942119465
 20
95.81101699683665
 30
0.0
 40
0.5
100
AcDbArc
 50
180.0000000000025
 51
270.0
  0
LINE
  5
3E3
330
1F
100
AcDbEntity
  8
Review Text Box
100
AcDbLine
 10
94.05595942119456
 20
97.56101699683668
 30
0.0
 11
94.05595942119466
 21
95.81101699683665
 31
0.0
  0
LINE
  5
3FC
330
1F
100
AcDbEntity
  8
Library Detail No.
100
AcDbLine
 10
98.00000000000002
 20
5.999999999999745
 30
0.0
 11
116.0
 21
6.0
 31
0.0
  0
LINE
  5
3FD
330
1F
100
AcDbEntity
  8
Library Detail No.
100
AcDbLine
 10
110.0
 20
6.0
 30
0.0
 11
110.0
 21
0.0
 31
0.0
  0
LINE
  5
3FE
330
1F
100
AcDbEntity
  8
Library Detail No.
100
AcDbLine
 10
98.00000000000002
 20
2.999999999999744
 30
0.0
 11
110.0
 21
2.999999999999914
 31
0.0
  0
LINE
  5
3FF
330
1F
100
AcDbEntity
  8
Library Detail No.
100
AcDbLine
 10
98.00000000000002
 20
6.0
 30
0.0
 11
98.00000000000002
 21
0.0
 31
0.0
  0
TEXT
  5
400
330
1F
100
AcDbEntity
  8
Library Detail No.
100
AcDbText
 10
98.97122423562416
 20
3.742756599620911
 30
0.0
 40
1.499988900009599
  1
WD00.0-00
 41
0.8
  7
SIMPLEX
 72
     1
 11
103.9711872356561
 21
3.742756599620911
 31
0.0
100
AcDbText
  0
TEXT
  5
401
330
1F
100
AcDbEntity
  8
Library Detail No.
100
AcDbText
 10
99.0473025716866
 20
0.7427565996209107
 30
0.0
 40
1.499988900009599
  1
V1.1
 41
0.8
  7
SIMPLEX
 72
     1
 11
100.5044346459816
 21
0.7427565996209107
 31
0.0
100
AcDbText
  0
LINE
  5
422
330
1F
100
AcDbEntity
  8
Review Text Box
100
AcDbLine
 10
21.76754529868217
 20
89.06956760081801
 30
0.0
 11
28.68562172385674
 21
89.06956760081801
 31
0.0
  0
ARC
  5
423
330
1F
100
AcDbEntity
  8
Review Text Box
100
AcDbCircle
 10
21.76754529868217
 20
88.569567600818
 30
0.0
 40
0.5
100
AcDbArc
 50
90.0
 51
180.0000000000032
  0
LINE
  5
424
330
1F
100
AcDbEntity
  8
Review Text Box
100
AcDbLine
 10
29.18562172385674
 20
88.56956760081798
 30
0.0
 11
29.18562172385664
 21
86.81956760081794
 31
0.0
  0
ARC
  5
425
330
1F
100
AcDbEntity
  8
Review Text Box
100
AcDbCircle
 10
28.68562172385674
 20
88.569567600818
 30
0.0
 40
0.5
100
AcDbArc
 50
359.9999999999968
 51
90.0
  0
LINE
  5
426
330
1F
100
AcDbEntity
  8
Review Text Box
100
AcDbLine
 10
21.76754529868226
 20
86.31956760081795
 30
0.0
 11
28.68562172385664
 21
86.31956760081795
 31
0.0
  0
ARC
  5
427
330
1F
100
AcDbEntity
  8
Review Text Box
100
AcDbCircle
 10
28.68562172385664
 20
86.81956760081794
 30
0.0
 40
0.5
100
AcDbArc
 50
270.0
 51
359.9999999999974
  0
ARC
  5
428
330
1F
100
AcDbEntity
  8
Review Text Box
100
AcDbCircle
 10
21.76754529868226
 20
86.81956760081794
 30
0.0
 40
0.5
100
AcDbArc
 50
180.0000000000025
 51
270.0
  0
LINE
  5
429
330
1F
100
AcDbEntity
  8
Review Text Box
100
AcDbLine
 10
21.26754529868216
 20
88.56956760081798
 30
0.0
 11
21.26754529868227
 21
86.81956760081794
 31
0.0
  0
LINE
  5
42A
330
1F
100
AcDbEntity
  8
Review Text Box
100
AcDbLine
 10
94.83237389752721
 20
40.95965881209752
 30
0.0
 11
101.7504503227018
 21
40.95965881209752
 31
0.0
  0
ARC
  5
42B
330
1F
100
AcDbEntity
  8
Review Text Box
100
AcDbCircle
 10
94.83237389752721
 20
40.45965881209752
 30
0.0
 40
0.5
100
AcDbArc
 50
90.0
 51
180.0000000000032
  0
LINE
  5
42C
330
1F
100
AcDbEntity
  8
Review Text Box
100
AcDbLine
 10
102.2504503227018
 20
40.4596588120975
 30
0.0
 11
102.2504503227017
 21
38.70965881209747
 31
0.0
  0
ARC
  5
42D
330
1F
100
AcDbEntity
  8
Review Text Box
100
AcDbCircle
 10
101.7504503227018
 20
40.45965881209752
 30
0.0
 40
0.5
100
AcDbArc
 50
359.9999999999968
 51
90.0
  0
LINE
  5
42E
330
1F
100
AcDbEntity
  8
Review Text Box
100
AcDbLine
 10
94.83237389752732
 20
38.20965881209748
 30
0.0
 11
101.7504503227017
 21
38.20965881209748
 31
0.0
  0
ARC
  5
42F
330
1F
100
AcDbEntity
  8
Review Text Box
100
AcDbCircle
 10
101.7504503227017
 20
38.70965881209747
 30
0.0
 40
0.5
100
AcDbArc
 50
270.0
 51
359.9999999999974
  0
ARC
  5
430
330
1F
100
AcDbEntity
  8
Review Text Box
100
AcDbCircle
 10
94.83237389752732
 20
38.70965881209747
 30
0.0
 40
0.5
100
AcDbArc
 50
180.0000000000025
 51
270.0
  0
LINE
  5
431
330
1F
100
AcDbEntity
  8
Review Text Box
100
AcDbLine
 10
94.33237389752722
 20
40.4596588120975
 30
0.0
 11
94.33237389752731
 21
38.70965881209747
 31
0.0
  0
LINE
  5
432
330
1F
100
AcDbEntity
  8
Review Text Box
100
AcDbLine
 10
7.179379670104168
 20
89.06381817738241
 30
0.0
 11
11.12285261669007
 21
89.06381817738241
 31
0.0
  0
ARC
  5
433
330
1F
100
AcDbEntity
  8
Review Text Box
100
AcDbCircle
 10
7.179379670104168
 20
88.56381817738242
 30
0.0
 40
0.5
100
AcDbArc
 50
90.0
 51
180.0000000000032
  0
LINE
  5
434
330
1F
100
AcDbEntity
  8
Review Text Box
100
AcDbLine
 10
11.62285261669007
 20
88.56381817738238
 30
0.0
 11
11.62285261668997
 21
86.81381817738236
 31
0.0
  0
ARC
  5
435
330
1F
100
AcDbEntity
  8
Review Text Box
100
AcDbCircle
 10
11.12285261669007
 20
88.56381817738242
 30
0.0
 40
0.5
100
AcDbArc
 50
359.9999999999968
 51
90.0
  0
LINE
  5
436
330
1F
100
AcDbEntity
  8
Review Text Box
100
AcDbLine
 10
7.179379670104253
 20
86.31381817738235
 30
0.0
 11
11.12285261668995
 21
86.31381817738235
 31
0.0
  0
ARC
  5
437
330
1F
100
AcDbEntity
  8
Review Text Box
100
AcDbCircle
 10
11.12285261668995
 20
86.81381817738236
 30
0.0
 40
0.5
100
AcDbArc
 50
270.0
 51
359.9999999999974
  0
ARC
  5
438
330
1F
100
AcDbEntity
  8
Review Text Box
100
AcDbCircle
 10
7.179379670104253
 20
86.81381817738236
 30
0.0
 40
0.5
100
AcDbArc
 50
180.0000000000025
 51
270.0
  0
LINE
  5
439
330
1F
100
AcDbEntity
  8
Review Text Box
100
AcDbLine
 10
6.679379670104168
 20
88.56381817738238
 30
0.0
 11
6.679379670104253
 21
86.81381817738236
 31
0.0
  0
LINE
  5
445
330
1F
100
AcDbEntity
  8
Review Text Box
100
AcDbLine
 10
87.20385264130815
 20
49.9670400623691
 30
0.0
 11
89.62019224763986
 21
49.96704006236911
 31
0.0
  0
ARC
  5
446
330
1F
100
AcDbEntity
  8
Review Text Box
100
AcDbCircle
 10
87.20385264130815
 20
49.4670400623691
 30
0.0
 40
0.5
100
AcDbArc
 50
90.0
 51
180.0000000000032
  0
LINE
  5
447
330
1F
100
AcDbEntity
  8
Review Text Box
100
AcDbLine
 10
90.12019224763987
 20
49.46704006236908
 30
0.0
 11
90.12019224763976
 21
47.71704006236904
 31
0.0
  0
ARC
  5
448
330
1F
100
AcDbEntity
  8
Review Text Box
100
AcDbCircle
 10
89.62019224763986
 20
49.4670400623691
 30
0.0
 40
0.5
100
AcDbArc
 50
359.9999999999968
 51
90.0
  0
LINE
  5
449
330
1F
100
AcDbEntity
  8
Review Text Box
100
AcDbLine
 10
87.20385264130824
 20
47.21704006236905
 30
0.0
 11
89.62019224763976
 21
47.21704006236905
 31
0.0
  0
ARC
  5
44A
330
1F
100
AcDbEntity
  8
Review Text Box
100
AcDbCircle
 10
89.62019224763976
 20
47.71704006236904
 30
0.0
 40
0.5
100
AcDbArc
 50
270.0
 51
359.9999999999974
  0
ARC
  5
44B
330
1F
100
AcDbEntity
  8
Review Text Box
100
AcDbCircle
 10
87.20385264130824
 20
47.71704006236904
 30
0.0
 40
0.5
100
AcDbArc
 50
180.0000000000025
 51
270.0
  0
LINE
  5
44C
330
1F
100
AcDbEntity
  8
Review Text Box
100
AcDbLine
 10
86.70385264130814
 20
49.46704006236908
 30
0.0
 11
86.70385264130825
 21
47.71704006236904
 31
0.0
  0
HATCH
  5
469
330
1F
100
AcDbEntity
  8
S-PATT WOOD
100
AcDbHatch
 10
0.0
 20
0.0
 30
0.0
210
0.0
220
0.0
230
1.0
  2
ANSI32
 70
     0
 71
     0
 91
        1
 92
        7
 72
     0
 73
     1
 93
        4
 10
48.60963867117106
 20
30.28651159523462
 10
47.98463867117105
 20
30.28651159523462
 10
47.98463867117105
 20
22.28651159523462
 10
48.60963867117104
 20
22.28651159523462
 97
        0
 75
     0
 76
     1
 52
0.0
 41
4.0
 77
     0
 78
     2
 53
45.0
 43
7.153166590979822
 44
-3.002804155391118
 45
-1.060660171779821
 46
1.060660171779821
 79
     0
 53
45.0
 43
7.860273370979822
 44
-3.002804155391118
 45
-1.060660171779821
 46
1.060660171779821
 79
     0
 47
0.0468907032200133
 98
        1
 10
48.22685928204208
 20
27.79827232031724
  0
LINE
  5
477
330
1F
100
AcDbEntity
  8
S-LEADER
100
AcDbLine
 10
72.27379018648304
 20
83.3642626181156
 30
0.0
 11
86.58405619060774
 21
83.36426261811562
 31
0.0
1001
ACAD
1000
DSTYLE
1002
{
1070
   147
1040
0.375
1070
    77
1070
     0
1002
}
  0
LINE
  5
479
330
1F
100
AcDbEntity
  8
S-LEADER
100
AcDbLine
 10
67.22605750009399
 20
90.13909532806746
 30
0.0
 11
86.29915694222139
 21
90.13909532806748
 31
0.0
1001
ACAD
1000
DSTYLE
1002
{
1070
   147
1040
0.375
1070
    77
1070
     0
1002
}
  0
LINE
  5
47B
330
1F
100
AcDbEntity
  8
S-LEADER
100
AcDbLine
 10
54.73463867117195
 20
96.65579901855723
 30
0.0
 11
86.29915694222139
 21
96.65579901855721
 31
0.0
1001
ACAD
1000
DSTYLE
1002
{
1070
   147
1040
0.375
1070
    77
1070
     0
1002
}
  0
LINE
  5
47D
330
1F
100
AcDbEntity
  8
S-LEADER
100
AcDbLine
 10
50.6803496727992
 20
85.25401236620036
 30
0.0
 11
26.56881275297772
 21
85.25401236620036
 31
0.0
1001
ACAD
1000
DSTYLE
1002
{
1070
   147
1040
0.375
1070
    77
1070
     0
1002
}
  0
LINE
  5
47F
330
1F
100
AcDbEntity
  8
S-LEADER
100
AcDbLine
 10
49.80960231353248
 20
78.80676729933378
 30
0.0
 11
25.47522232068221
 21
78.80676729933378
 31
0.0
1001
ACAD
1000
DSTYLE
1002
{
1070
   147
1040
0.375
1070
    77
1070
     0
1002
}
  0
LINE
  5
480
330
1F
100
AcDbEntity
  8
S-LEADER
100
AcDbLine
 10
47.33923553651322
 20
71.25118688290797
 30
0.0
 11
25.6152849020271
 21
71.25118688290799
 31
0.0
1001
ACAD
1000
DSTYLE
1002
{
1070
   147
1040
0.375
1070
    77
1070
     0
1002
}
  0
LINE
  5
481
330
1F
100
AcDbEntity
  8
S-LEADER
100
AcDbLine
 10
49.57838867117101
 20
62.50453195837412
 30
0.0
 11
23.04764906991892
 21
62.50453195837412
 31
0.0
1001
ACAD
1000
DSTYLE
1002
{
1070
   147
1040
0.375
1070
    77
1070
     0
1002
}
  0
LINE
  5
484
330
1F
100
AcDbEntity
  8
S-LEADER
100
AcDbLine
 10
37.39142047720026
 20
45.74484689709907
 30
0.0
 11
25.67098989321574
 21
45.74484689709908
 31
0.0
1001
ACAD
1000
DSTYLE
1002
{
1070
   147
1040
0.375
1070
    77
1070
     0
1002
}
  0
LINE
  5
486
330
1F
100
AcDbEntity
  8
S-LEADER
100
AcDbLine
 10
47.6513053378377
 20
33.39634491426517
 30
0.0
 11
25.8692443740473
 21
33.39634491426518
 31
0.0
1001
ACAD
1000
DSTYLE
1002
{
1070
   147
1040
0.375
1070
    77
1070
     0
1002
}
  0
LINE
  5
487
330
1F
100
AcDbEntity
  8
S-LEADER
100
AcDbLine
 10
54.44297200450439
 20
39.46180265415789
 30
0.0
 11
86.29915694222139
 21
39.46180265415789
 31
0.0
1001
ACAD
1000
DSTYLE
1002
{
1070
   147
1040
0.375
1070
    77
1070
     0
1002
}
  0
LINE
  5
488
330
1F
100
AcDbEntity
  8
S-LEADER
100
AcDbLine
 10
55.06797200450439
 20
32.46970729652202
 30
0.0
 11
86.29915694222139
 21
32.46970729652202
 31
0.0
1001
ACAD
1000
DSTYLE
1002
{
1070
   147
1040
0.375
1070
    77
1070
     0
1002
}
  0
LINE
  5
48A
330
1F
100
AcDbEntity
  8
S-LEADER
100
AcDbLine
 10
60.72430707029599
 20
43.69092071115455
 30
0.0
 11
86.29915694222139
 21
43.69092071115455
 31
0.0
1001
ACAD
1000
DSTYLE
1002
{
1070
   147
1040
0.375
1070
    77
1070
     0
1002
}
  0
LINE
  5
48C
330
1F
100
AcDbEntity
  8
S-LEADER
100
AcDbLine
 10
67.74830138009201
 20
48.62904488108888
 30
0.0
 11
86.70385264130819
 21
48.62904488108887
 31
0.0
1001
ACAD
1000
DSTYLE
1002
{
1070
   147
1040
0.375
1070
    77
1070
     0
1002
}
  0
LINE
  5
48D
330
1F
100
AcDbEntity
  8
S-LEADER
100
AcDbLine
 10
72.27379018648304
 20
83.3642626181156
 30
0.0
 11
72.27379018648304
 21
70.50118688290798
 31
0.0
  0
LINE
  5
48E
330
1F
100
AcDbEntity
  8
S-LEADER
100
AcDbLine
 10
67.22605750009399
 20
90.13909532806746
 30
0.0
 11
67.22605750009399
 21
72.00118688290797
 31
0.0
  0
INSERT
  5
48F
330
1F
100
AcDbEntity
  8
S-ARROW HEAD
100
AcDbBlockReference
  2
axarrow
 10
72.27379018648304
 20
70.501186882908
 30
0.0
 41
16.0
 42
16.0
 43
16.0
 50
270.0
  0
INSERT
  5
490
330
1F
100
AcDbEntity
  8
S-ARROW HEAD
100
AcDbBlockReference
  2
axarrow
 10
67.22605750009399
 20
72.001186882908
 30
0.0
 41
16.0
 42
16.0
 43
16.0
 50
270.0
  0
INSERT
  5
491
330
1F
100
AcDbEntity
  8
S-ARROW HEAD
100
AcDbBlockReference
  2
axarrow
 10
54.73463867117195
 20
96.65579901855723
 30
0.0
 41
16.0
 42
16.0
 43
16.0
 50
180.0
1001
ACAD
1000
DSTYLE
1002
{
1070
   147
1040
0.375
1070
    77
1070
     0
1002
}
  0
LINE
  5
492
330
1F
100
AcDbEntity
  8
S-LEADER
100
AcDbLine
 10
67.74830138009201
 20
53.75118688290796
 30
0.0
 11
67.74830138009201
 21
48.62904488108888
 31
0.0
  0
INSERT
  5
493
330
1F
100
AcDbEntity
  8
S-ARROW HEAD
100
AcDbBlockReference
  2
axarrow
 10
67.74830138009201
 20
53.75118688290796
 30
0.0
 41
16.0
 42
16.0
 43
16.0
 50
90.0
  0
LINE
  5
494
330
1F
100
AcDbEntity
  8
S-LEADER
100
AcDbLine
 10
54.10963867117104
 20
51.43837583748833
 30
0.0
 11
60.72430707029599
 21
51.43837583748833
 31
0.0
  0
LINE
  5
495
330
1F
100
AcDbEntity
  8
S-LEADER
100
AcDbLine
 10
60.72430707029599
 20
51.43837583748833
 30
0.0
 11
60.72430707029599
 21
43.69092071115455
 31
0.0
  0
INSERT
  5
496
330
1F
100
AcDbEntity
  8
S-ARROW HEAD
100
AcDbBlockReference
  2
axarrow
 10
54.10963867117104
 20
51.43837583748833
 30
0.0
 41
16.0
 42
16.0
 43
16.0
 50
180.0
1001
ACAD
1000
DSTYLE
1002
{
1070
   147
1040
0.375
1070
    77
1070
     0
1002
}
  0
LINE
  5
497
330
1F
100
AcDbEntity
  8
S-LEADER
100
AcDbLine
 10
50.6803496727992
 20
73.08023560964025
 30
0.0
 11
50.6803496727992
 21
85.25401236620036
 31
0.0
  0
LINE
  5
498
330
1F
100
AcDbEntity
  8
S-LEADER
100
AcDbLine
 10
49.80960231353248
 20
71.0842312568482
 30
0.0
 11
49.80960231353248
 21
78.80676729933378
 31
0.0
  0
INSERT
  5
499
330
1F
100
AcDbEntity
  8
S-ARROW HEAD
100
AcDbBlockReference
  2
axarrow
 10
49.80960231353248
 20
71.08423125684822
 30
0.0
 41
16.0
 42
16.0
 43
16.0
 50
270.0
  0
INSERT
  5
49A
330
1F
100
AcDbEntity
  8
S-ARROW HEAD
100
AcDbBlockReference
  2
axarrow
 10
50.6803496727992
 20
73.08023560964028
 30
0.0
 41
16.0
 42
16.0
 43
16.0
 50
270.0
  0
INSERT
  5
49B
330
1F
100
AcDbEntity
  8
S-ARROW HEAD
100
AcDbBlockReference
  2
axarrow
 10
47.33923553651322
 20
68.86447564843724
 30
0.0
 41
16.0
 42
16.0
 43
16.0
1001
ACAD
1000
DSTYLE
1002
{
1070
   147
1040
0.375
1070
    77
1070
     0
1002
}
  0
LINE
  5
49C
330
1F
100
AcDbEntity
  8
S-LEADER
100
AcDbLine
 10
47.33923553651322
 20
68.86447564843724
 30
0.0
 11
37.39142047720026
 21
68.86447564843724
 31
0.0
1001
ACAD
1000
DSTYLE
1002
{
1070
   147
1040
0.375
1070
    77
1070
     0
1002
}
  0
LINE
  5
49D
330
1F
100
AcDbEntity
  8
S-LEADER
100
AcDbLine
 10
37.39142047720026
 20
71.25118688290797
 30
0.0
 11
37.39142047720026
 21
68.86447564843724
 31
0.0
  0
INSERT
  5
49E
330
1F
100
AcDbEntity
  8
S-ARROW HEAD
100
AcDbBlockReference
  2
axarrow
 10
47.33923553651322
 20
54.52172690047684
 30
0.0
 41
16.0
 42
16.0
 43
16.0
1001
ACAD
1000
DSTYLE
1002
{
1070
   147
1040
0.375
1070
    77
1070
     0
1002
}
  0
LINE
  5
49F
330
1F
100
AcDbEntity
  8
S-LEADER
100
AcDbLine
 10
47.33923553651322
 20
54.52172690047684
 30
0.0
 11
37.39142047720025
 21
54.52172690047684
 31
0.0
1001
ACAD
1000
DSTYLE
1002
{
1070
   147
1040
0.375
1070
    77
1070
     0
1002
}
  0
INSERT
  5
4A0
330
1F
100
AcDbEntity
  8
S-ARROW HEAD
100
AcDbBlockReference
  2
axarrow
 10
47.33923553651322
 20
52.97442562654754
 30
0.0
 41
16.0
 42
16.0
 43
16.0
1001
ACAD
1000
DSTYLE
1002
{
1070
   147
1040
0.375
1070
    77
1070
     0
1002
}
  0
LINE
  5
4A1
330
1F
100
AcDbEntity
  8
S-LEADER
100
AcDbLine
 10
47.33923553651322
 20
52.97442562654754
 30
0.0
 11
37.39142047720025
 21
52.97442562654754
 31
0.0
1001
ACAD
1000
DSTYLE
1002
{
1070
   147
1040
0.375
1070
    77
1070
     0
1002
}
  0
LINE
  5
4A2
330
1F
100
AcDbEntity
  8
S-LEADER
100
AcDbLine
 10
37.39142047720026
 20
54.52172690047684
 30
0.0
 11
37.39142047720026
 21
45.74484689709907
 31
0.0
  0
LINE
  5
7E8
330
1F
100
AcDbEntity
  8
S-ARCH'L BRICK
100
AcDbLine
 10
46.23463867117877
 20
59.09361070602684
 30
0.0
 11
46.23463867117831
 21
61.38527737269346
 31
0.0
  0
LINE
  5
7E9
330
1F
100
AcDbEntity
  8
S-ARCH'L BRICK
100
AcDbLine
 10
42.60963867117832
 20
61.38527737269346
 30
0.0
 11
42.60963867117877
 21
59.09361070602684
 31
0.0
  0
HATCH
  5
7EA
330
1F
100
AcDbEntity
  8
S-PATT MAS
100
AcDbHatch
 10
0.0
 20
0.0
 30
0.0
210
0.0
220
0.0
230
1.0
  2
ANSI31
 70
     0
 71
     0
 91
        1
 92
        7
 72
     0
 73
     1
 93
        4
 10
42.60963867117832
 20
61.38527737269346
 10
42.60963867117877
 20
59.09361070602684
 10
46.23463867117877
 20
59.09361070602684
 10
46.23463867117831
 20
61.38527737269346
 97
        0
 75
     0
 76
     1
 52
90.0
 41
12.0
 77
     0
 78
     1
 53
135.0
 43
-353.5184337648001
 44
-39.59647824135291
 45
-1.060660171779821
 46
-1.060660171779821
 79
     0
 47
0.0411796682187945
 98
        1
 10
44.4336074093159
 20
60.4396317847855
  0
LINE
  5
7EB
330
1F
100
AcDbEntity
  8
S-ARCH'L BRICK
100
AcDbLine
 10
46.23463867118513
 20
27.09361070602716
 30
0.0
 11
46.23463867118468
 21
29.38527737269379
 31
0.0
  0
LINE
  5
7EC
330
1F
100
AcDbEntity
  8
S-ARCH'L BRICK
100
AcDbLine
 10
42.60963867118468
 20
29.38527737269379
 30
0.0
 11
42.60963867118514
 21
27.09361070602716
 31
0.0
  0
HATCH
  5
7ED
330
1F
100
AcDbEntity
  8
S-PATT MAS
100
AcDbHatch
 10
0.0
 20
0.0
 30
0.0
210
0.0
220
0.0
230
1.0
  2
ANSI31
 70
     0
 71
     0
 91
        1
 92
        7
 72
     0
 73
     1
 93
        4
 10
42.60963867118468
 20
29.3852773726938
 10
42.60963867118514
 20
27.09361070602717
 10
46.23463867118513
 20
27.09361070602717
 10
46.23463867118468
 20
29.3852773726938
 97
        0
 75
     0
 76
     1
 52
90.0
 41
12.0
 77
     0
 78
     1
 53
135.0
 43
-353.5184337647937
 44
-71.59647824135259
 45
-1.060660171779821
 46
-1.060660171779821
 79
     0
 47
0.0411796682187945
 98
        1
 10
44.43360740932226
 20
28.43963178478584
  0
LINE
  5
7EE
330
1F
100
AcDbEntity
  8
S-ARCH'L BRICK
100
AcDbLine
 10
42.60963867118514
 20
27.09361070602716
 30
0.0
 11
46.23463867118513
 21
27.09361070602716
 31
0.0
  0
LINE
  5
7F0
330
1F
100
AcDbEntity
  8
S-ARCH'L BRICK
100
AcDbLine
 10
42.60963867118582
 20
24.05194403936051
 30
0.0
 11
46.23463867118582
 21
24.05194403936051
 31
0.0
  0
LINE
  5
7F1
330
1F
100
AcDbEntity
  8
S-ARCH'L BRICK
100
AcDbLine
 10
42.60963867118582
 20
24.42694403936051
 30
0.0
 11
46.23463867118582
 21
24.42694403936051
 31
0.0
  0
LINE
  5
7F2
330
1F
100
AcDbEntity
  8
S-ARCH'L BRICK
100
AcDbLine
 10
42.60963867118536
 20
26.71861070602714
 30
0.0
 11
46.23463867118537
 21
26.71861070602714
 31
0.0
  0
HATCH
  5
7F3
330
1F
100
AcDbEntity
  8
S-PATT MAS
100
AcDbHatch
 10
0.0
 20
0.0
 30
0.0
210
0.0
220
0.0
230
1.0
  2
ANSI31
 70
     0
 71
     0
 91
        1
 92
        7
 72
     0
 73
     1
 93
        4
 10
42.60963867118547
 20
26.71861070602715
 10
42.60963867118593
 20
24.42694403936052
 10
46.23463867118593
 20
24.42694403936052
 10
46.23463867118547
 20
26.71861070602715
 97
        0
 75
     0
 76
     1
 52
90.0
 41
12.0
 77
     0
 78
     1
 53
135.0
 43
-353.5184337647919
 44
-79.5964782413525
 45
-1.060660171779821
 46
-1.060660171779821
 79
     0
 47
0.050878204731862
 98
        1
 10
44.62661425220491
 20
25.65762767872233
  0
LINE
  5
7F4
330
1F
100
AcDbEntity
  8
S-ARCH'L BRICK
100
AcDbLine
 10
42.60963867118536
 20
26.71861070602714
 30
0.0
 11
42.60963867118582
 21
24.42694403936051
 31
0.0
  0
LINE
  5
7F5
330
1F
100
AcDbEntity
  8
S-ARCH'L BRICK
100
AcDbLine
 10
42.60963867118582
 20
24.05194403936051
 30
0.0
 11
42.60963867118615
 21
22.28651159523462
 31
0.0
  0
ARC
  5
7F6
330
1F
100
AcDbEntity
  8
S-ARCH'L BRICK
100
AcDbCircle
 10
42.60963867118582
 20
24.23944403936051
 30
0.0
 40
0.1875
100
AcDbArc
 50
270.0
 51
90.0
  0
ARC
  5
7F7
330
1F
100
AcDbEntity
  8
S-ARCH'L BRICK
100
AcDbCircle
 10
42.60963867118536
 20
26.90611070602713
 30
0.0
 40
0.1875
100
AcDbArc
 50
270.0
 51
90.0
  0
LINE
  5
7F8
330
1F
100
AcDbEntity
  8
S-ARCH'L BRICK
100
AcDbLine
 10
46.23463867118582
 20
24.42694403936051
 30
0.0
 11
46.23463867118537
 21
26.71861070602714
 31
0.0
  0
LINE
  5
7F9
330
1F
100
AcDbEntity
  8
S-ARCH'L BRICK
100
AcDbLine
 10
46.23463867118631
 20
22.28651159523462
 30
0.0
 11
46.23463867118582
 21
24.05194403936051
 31
0.0
  0
ARC
  5
7FA
330
1F
100
AcDbEntity
  8
S-ARCH'L BRICK
100
AcDbCircle
 10
46.23463867118582
 20
24.23944403936051
 30
0.0
 40
0.1875
100
AcDbArc
 50
90.0
 51
270.0
  0
ARC
  5
7FB
330
1F
100
AcDbEntity
  8
S-ARCH'L BRICK
100
AcDbCircle
 10
46.23463867118537
 20
26.90611070602713
 30
0.0
 40
0.1875
100
AcDbArc
 50
90.0
 51
270.0
  0
LINE
  5
7FC
330
1F
100
AcDbEntity
  8
S-ARCH'L BRICK
100
AcDbLine
 10
46.23463867118196
 20
43.093610706027
 30
0.0
 11
46.23463867118149
 21
45.38527737269363
 31
0.0
  0
LINE
  5
7FD
330
1F
100
AcDbEntity
  8
S-ARCH'L BRICK
100
AcDbLine
 10
42.6096386711815
 20
45.38527737269363
 30
0.0
 11
42.60963867118195
 21
43.093610706027
 31
0.0
  0
HATCH
  5
7FE
330
1F
100
AcDbEntity
  8
S-PATT MAS
100
AcDbHatch
 10
0.0
 20
0.0
 30
0.0
210
0.0
220
0.0
230
1.0
  2
ANSI31
 70
     0
 71
     0
 91
        1
 92
        7
 72
     0
 73
     1
 93
        4
 10
42.6096386711815
 20
45.38527737269363
 10
42.60963867118195
 20
43.093610706027
 10
46.23463867118196
 20
43.093610706027
 10
46.23463867118149
 20
45.38527737269363
 97
        0
 75
     0
 76
     1
 52
90.0
 41
12.0
 77
     0
 78
     1
 53
135.0
 43
-353.5184337647969
 44
-55.59647824135272
 45
-1.060660171779821
 46
-1.060660171779821
 79
     0
 47
0.0411796682187945
 98
        1
 10
44.43360740931908
 20
44.43963178478568
  0
LINE
  5
7FF
330
1F
100
AcDbEntity
  8
S-ARCH'L BRICK
100
AcDbLine
 10
46.23463867118354
 20
35.0936107060271
 30
0.0
 11
46.23463867118309
 21
37.38527737269372
 31
0.0
  0
LINE
  5
800
330
1F
100
AcDbEntity
  8
S-ARCH'L BRICK
100
AcDbLine
 10
42.60963867118308
 20
37.38527737269372
 30
0.0
 11
42.60963867118355
 21
35.0936107060271
 31
0.0
  0
HATCH
  5
801
330
1F
100
AcDbEntity
  8
S-PATT MAS
100
AcDbHatch
 10
0.0
 20
0.0
 30
0.0
210
0.0
220
0.0
230
1.0
  2
ANSI31
 70
     0
 71
     0
 91
        1
 92
        7
 72
     0
 73
     1
 93
        4
 10
42.60963867118308
 20
37.38527737269372
 10
42.60963867118355
 20
35.0936107060271
 10
46.23463867118354
 20
35.0936107060271
 10
46.23463867118309
 20
37.38527737269372
 97
        0
 75
     0
 76
     1
 52
90.0
 41
12.0
 77
     0
 78
     1
 53
135.0
 43
-353.5184337647953
 44
-63.59647824135267
 45
-1.060660171779821
 46
-1.060660171779821
 79
     0
 47
0.0411796682187945
 98
        1
 10
44.43360740932067
 20
36.43963178478576
  0
LINE
  5
802
330
1F
100
AcDbEntity
  8
S-ARCH'L BRICK
100
AcDbLine
 10
42.60963867118468
 20
29.38527737269379
 30
0.0
 11
46.23463867118468
 21
29.38527737269379
 31
0.0
  0
LINE
  5
803
330
1F
100
AcDbEntity
  8
S-ARCH'L BRICK
100
AcDbLine
 10
42.60963867118468
 20
29.76027737269379
 30
0.0
 11
46.23463867118468
 21
29.76027737269379
 31
0.0
  0
LINE
  5
804
330
1F
100
AcDbEntity
  8
S-ARCH'L BRICK
100
AcDbLine
 10
42.60963867118422
 20
32.05194403936042
 30
0.0
 11
46.23463867118423
 21
32.05194403936042
 31
0.0
  0
LINE
  5
805
330
1F
100
AcDbEntity
  8
S-ARCH'L BRICK
100
AcDbLine
 10
42.60963867118422
 20
32.42694403936042
 30
0.0
 11
46.23463867118423
 21
32.42694403936042
 31
0.0
  0
LINE
  5
806
330
1F
100
AcDbEntity
  8
S-ARCH'L BRICK
100
AcDbLine
 10
42.60963867118377
 20
34.71861070602706
 30
0.0
 11
46.23463867118377
 21
34.71861070602706
 31
0.0
  0
HATCH
  5
807
330
1F
100
AcDbEntity
  8
S-PATT MAS
100
AcDbHatch
 10
0.0
 20
0.0
 30
0.0
210
0.0
220
0.0
230
1.0
  2
ANSI31
 70
     0
 71
     0
 91
        1
 92
        7
 72
     0
 73
     1
 93
        4
 10
42.60963867118468
 20
29.7602773726938
 10
46.23463867118468
 20
29.7602773726938
 10
46.23463867118423
 20
32.05194403936043
 10
42.60963867118422
 20
32.05194403936043
 97
        0
 75
     0
 76
     1
 52
90.0
 41
12.0
 77
     0
 78
     1
 53
135.0
 43
-353.5184337647937
 44
-71.59647824135259
 45
-1.060660171779821
 46
-1.060660171779821
 79
     0
 47
0.050878204731862
 98
        1
 10
43.40425891963755
 20
30.91020438513755
  0
HATCH
  5
808
330
1F
100
AcDbEntity
  8
S-PATT MAS
100
AcDbHatch
 10
0.0
 20
0.0
 30
0.0
210
0.0
220
0.0
230
1.0
  2
ANSI31
 70
     0
 71
     0
 91
        1
 92
        7
 72
     0
 73
     1
 93
        4
 10
42.60963867118377
 20
34.71861070602706
 10
42.60963867118422
 20
32.42694403936043
 10
46.23463867118423
 20
32.42694403936043
 10
46.23463867118377
 20
34.71861070602706
 97
        0
 75
     0
 76
     1
 52
90.0
 41
12.0
 77
     0
 78
     1
 53
135.0
 43
-353.5184337647937
 44
-71.59647824135259
 45
-1.060660171779821
 46
-1.060660171779821
 79
     0
 47
0.050878204731862
 98
        1
 10
44.62661425220327
 20
33.65762767872225
  0
LINE
  5
809
330
1F
100
AcDbEntity
  8
S-ARCH'L BRICK
100
AcDbLine
 10
42.60963867118355
 20
35.0936107060271
 30
0.0
 11
46.23463867118354
 21
35.0936107060271
 31
0.0
  0
LINE
  5
80A
330
1F
100
AcDbEntity
  8
S-ARCH'L BRICK
100
AcDbLine
 10
42.60963867118377
 20
34.71861070602706
 30
0.0
 11
42.60963867118422
 21
32.42694403936042
 31
0.0
  0
LINE
  5
80B
330
1F
100
AcDbEntity
  8
S-ARCH'L BRICK
100
AcDbLine
 10
42.60963867118422
 20
32.05194403936042
 30
0.0
 11
42.60963867118468
 21
29.76027737269379
 31
0.0
  0
ARC
  5
80C
330
1F
100
AcDbEntity
  8
S-ARCH'L BRICK
100
AcDbCircle
 10
42.60963867118468
 20
29.57277737269379
 30
0.0
 40
0.1875
100
AcDbArc
 50
270.0
 51
90.0
  0
ARC
  5
80D
330
1F
100
AcDbEntity
  8
S-ARCH'L BRICK
100
AcDbCircle
 10
42.60963867118422
 20
32.23944403936042
 30
0.0
 40
0.1875
100
AcDbArc
 50
270.0
 51
90.0
  0
ARC
  5
80E
330
1F
100
AcDbEntity
  8
S-ARCH'L BRICK
100
AcDbCircle
 10
42.60963867118377
 20
34.90611070602707
 30
0.0
 40
0.1875
100
AcDbArc
 50
270.0
 51
90.0
  0
LINE
  5
80F
330
1F
100
AcDbEntity
  8
S-ARCH'L BRICK
100
AcDbLine
 10
46.23463867118423
 20
32.42694403936042
 30
0.0
 11
46.23463867118377
 21
34.71861070602706
 31
0.0
  0
LINE
  5
810
330
1F
100
AcDbEntity
  8
S-ARCH'L BRICK
100
AcDbLine
 10
46.23463867118468
 20
29.76027737269379
 30
0.0
 11
46.23463867118423
 21
32.05194403936042
 31
0.0
  0
ARC
  5
811
330
1F
100
AcDbEntity
  8
S-ARCH'L BRICK
100
AcDbCircle
 10
46.23463867118468
 20
29.57277737269379
 30
0.0
 40
0.1875
100
AcDbArc
 50
90.0
 51
270.0
  0
ARC
  5
812
330
1F
100
AcDbEntity
  8
S-ARCH'L BRICK
100
AcDbCircle
 10
46.23463867118423
 20
32.23944403936042
 30
0.0
 40
0.1875
100
AcDbArc
 50
90.0
 51
270.0
  0
ARC
  5
813
330
1F
100
AcDbEntity
  8
S-ARCH'L BRICK
100
AcDbCircle
 10
46.23463867118377
 20
34.90611070602707
 30
0.0
 40
0.1875
100
AcDbArc
 50
90.0
 51
270.0
  0
LINE
  5
814
330
1F
100
AcDbEntity
  8
S-ARCH'L BRICK
100
AcDbLine
 10
42.60963867118308
 20
37.38527737269372
 30
0.0
 11
46.23463867118309
 21
37.38527737269372
 31
0.0
  0
LINE
  5
815
330
1F
100
AcDbEntity
  8
S-ARCH'L BRICK
100
AcDbLine
 10
42.60963867118308
 20
37.76027737269372
 30
0.0
 11
46.23463867118309
 21
37.76027737269372
 31
0.0
  0
LINE
  5
816
330
1F
100
AcDbEntity
  8
S-ARCH'L BRICK
100
AcDbLine
 10
42.60963867118263
 20
40.05194403936035
 30
0.0
 11
46.23463867118263
 21
40.05194403936035
 31
0.0
  0
LINE
  5
817
330
1F
100
AcDbEntity
  8
S-ARCH'L BRICK
100
AcDbLine
 10
42.60963867118263
 20
40.42694403936034
 30
0.0
 11
46.23463867118263
 21
40.42694403936034
 31
0.0
  0
LINE
  5
818
330
1F
100
AcDbEntity
  8
S-ARCH'L BRICK
100
AcDbLine
 10
42.60963867118218
 20
42.71861070602697
 30
0.0
 11
46.23463867118218
 21
42.71861070602697
 31
0.0
  0
HATCH
  5
819
330
1F
100
AcDbEntity
  8
S-PATT MAS
100
AcDbHatch
 10
0.0
 20
0.0
 30
0.0
210
0.0
220
0.0
230
1.0
  2
ANSI31
 70
     0
 71
     0
 91
        1
 92
        7
 72
     0
 73
     1
 93
        4
 10
42.60963867118308
 20
37.76027737269372
 10
46.23463867118309
 20
37.76027737269372
 10
46.23463867118263
 20
40.05194403936035
 10
42.60963867118263
 20
40.05194403936035
 97
        0
 75
     0
 76
     1
 52
90.0
 41
12.0
 77
     0
 78
     1
 53
135.0
 43
-353.5184337647953
 44
-63.59647824135267
 45
-1.060660171779821
 46
-1.060660171779821
 79
     0
 47
0.050878204731862
 98
        1
 10
43.40425891963596
 20
38.91020438513748
  0
HATCH
  5
81A
330
1F
100
AcDbEntity
  8
S-PATT MAS
100
AcDbHatch
 10
0.0
 20
0.0
 30
0.0
210
0.0
220
0.0
230
1.0
  2
ANSI31
 70
     0
 71
     0
 91
        1
 92
        7
 72
     0
 73
     1
 93
        4
 10
42.60963867118218
 20
42.71861070602698
 10
42.60963867118263
 20
40.42694403936034
 10
46.23463867118263
 20
40.42694403936034
 10
46.23463867118218
 20
42.71861070602698
 97
        0
 75
     0
 76
     1
 52
90.0
 41
12.0
 77
     0
 78
     1
 53
135.0
 43
-353.5184337647953
 44
-63.59647824135267
 45
-1.060660171779821
 46
-1.060660171779821
 79
     0
 47
0.050878204731862
 98
        1
 10
44.62661425220168
 20
41.65762767872216
  0
LINE
  5
81B
330
1F
100
AcDbEntity
  8
S-ARCH'L BRICK
100
AcDbLine
 10
42.60963867118195
 20
43.093610706027
 30
0.0
 11
46.23463867118196
 21
43.093610706027
 31
0.0
  0
LINE
  5
81C
330
1F
100
AcDbEntity
  8
S-ARCH'L BRICK
100
AcDbLine
 10
42.60963867118218
 20
42.71861070602697
 30
0.0
 11
42.60963867118263
 21
40.42694403936034
 31
0.0
  0
LINE
  5
81D
330
1F
100
AcDbEntity
  8
S-ARCH'L BRICK
100
AcDbLine
 10
42.60963867118263
 20
40.05194403936035
 30
0.0
 11
42.60963867118308
 21
37.76027737269372
 31
0.0
  0
ARC
  5
81E
330
1F
100
AcDbEntity
  8
S-ARCH'L BRICK
100
AcDbCircle
 10
42.60963867118308
 20
37.57277737269372
 30
0.0
 40
0.1875
100
AcDbArc
 50
270.0
 51
90.0
  0
ARC
  5
81F
330
1F
100
AcDbEntity
  8
S-ARCH'L BRICK
100
AcDbCircle
 10
42.60963867118263
 20
40.23944403936034
 30
0.0
 40
0.1875
100
AcDbArc
 50
270.0
 51
90.0
  0
ARC
  5
820
330
1F
100
AcDbEntity
  8
S-ARCH'L BRICK
100
AcDbCircle
 10
42.60963867118218
 20
42.90611070602697
 30
0.0
 40
0.1875
100
AcDbArc
 50
270.0
 51
90.0
  0
LINE
  5
821
330
1F
100
AcDbEntity
  8
S-ARCH'L BRICK
100
AcDbLine
 10
46.23463867118263
 20
40.42694403936034
 30
0.0
 11
46.23463867118218
 21
42.71861070602697
 31
0.0
  0
LINE
  5
822
330
1F
100
AcDbEntity
  8
S-ARCH'L BRICK
100
AcDbLine
 10
46.23463867118309
 20
37.76027737269372
 30
0.0
 11
46.23463867118263
 21
40.05194403936035
 31
0.0
  0
ARC
  5
823
330
1F
100
AcDbEntity
  8
S-ARCH'L BRICK
100
AcDbCircle
 10
46.23463867118309
 20
37.57277737269372
 30
0.0
 40
0.1875
100
AcDbArc
 50
90.0
 51
270.0
  0
ARC
  5
824
330
1F
100
AcDbEntity
  8
S-ARCH'L BRICK
100
AcDbCircle
 10
46.23463867118263
 20
40.23944403936034
 30
0.0
 40
0.1875
100
AcDbArc
 50
90.0
 51
270.0
  0
ARC
  5
825
330
1F
100
AcDbEntity
  8
S-ARCH'L BRICK
100
AcDbCircle
 10
46.23463867118218
 20
42.90611070602697
 30
0.0
 40
0.1875
100
AcDbArc
 50
90.0
 51
270.0
  0
LINE
  5
826
330
1F
100
AcDbEntity
  8
S-ARCH'L BRICK
100
AcDbLine
 10
46.23463867118036
 20
51.09361070602691
 30
0.0
 11
46.2346386711799
 21
53.38527737269354
 31
0.0
  0
LINE
  5
827
330
1F
100
AcDbEntity
  8
S-ARCH'L BRICK
100
AcDbLine
 10
42.60963867117991
 20
53.38527737269354
 30
0.0
 11
42.60963867118036
 21
51.09361070602691
 31
0.0
  0
HATCH
  5
828
330
1F
100
AcDbEntity
  8
S-PATT MAS
100
AcDbHatch
 10
0.0
 20
0.0
 30
0.0
210
0.0
220
0.0
230
1.0
  2
ANSI31
 70
     0
 71
     0
 91
        1
 92
        7
 72
     0
 73
     1
 93
        4
 10
42.60963867117991
 20
53.38527737269355
 10
42.60963867118036
 20
51.09361070602692
 10
46.23463867118036
 20
51.09361070602692
 10
46.2346386711799
 20
53.38527737269355
 97
        0
 75
     0
 76
     1
 52
90.0
 41
12.0
 77
     0
 78
     1
 53
135.0
 43
-353.5184337647985
 44
-47.59647824135281
 45
-1.060660171779821
 46
-1.060660171779821
 79
     0
 47
0.0411796682187945
 98
        1
 10
44.43360740931749
 20
52.43963178478558
  0
LINE
  5
829
330
1F
100
AcDbEntity
  8
S-ARCH'L BRICK
100
AcDbLine
 10
42.6096386711815
 20
45.38527737269363
 30
0.0
 11
46.23463867118149
 21
45.38527737269363
 31
0.0
  0
LINE
  5
82A
330
1F
100
AcDbEntity
  8
S-ARCH'L BRICK
100
AcDbLine
 10
42.6096386711815
 20
45.76027737269362
 30
0.0
 11
46.23463867118149
 21
45.76027737269362
 31
0.0
  0
LINE
  5
82B
330
1F
100
AcDbEntity
  8
S-ARCH'L BRICK
100
AcDbLine
 10
42.60963867118104
 20
48.05194403936026
 30
0.0
 11
46.23463867118104
 21
48.05194403936026
 31
0.0
  0
LINE
  5
82C
330
1F
100
AcDbEntity
  8
S-ARCH'L BRICK
100
AcDbLine
 10
42.60963867118104
 20
48.42694403936025
 30
0.0
 11
46.23463867118104
 21
48.42694403936025
 31
0.0
  0
LINE
  5
82D
330
1F
100
AcDbEntity
  8
S-ARCH'L BRICK
100
AcDbLine
 10
42.60963867118059
 20
50.71861070602689
 30
0.0
 11
46.23463867118059
 21
50.71861070602689
 31
0.0
  0
HATCH
  5
82E
330
1F
100
AcDbEntity
  8
S-PATT MAS
100
AcDbHatch
 10
0.0
 20
0.0
 30
0.0
210
0.0
220
0.0
230
1.0
  2
ANSI31
 70
     0
 71
     0
 91
        1
 92
        7
 72
     0
 73
     1
 93
        4
 10
42.6096386711815
 20
45.76027737269363
 10
46.23463867118149
 20
45.76027737269363
 10
46.23463867118104
 20
48.05194403936027
 10
42.60963867118104
 20
48.05194403936027
 97
        0
 75
     0
 76
     1
 52
90.0
 41
12.0
 77
     0
 78
     1
 53
135.0
 43
-353.5184337647969
 44
-55.59647824135272
 45
-1.060660171779821
 46
-1.060660171779821
 79
     0
 47
0.050878204731862
 98
        1
 10
43.40425891963437
 20
46.91020438513739
  0
HATCH
  5
82F
330
1F
100
AcDbEntity
  8
S-PATT MAS
100
AcDbHatch
 10
0.0
 20
0.0
 30
0.0
210
0.0
220
0.0
230
1.0
  2
ANSI31
 70
     0
 71
     0
 91
        1
 92
        7
 72
     0
 73
     1
 93
        4
 10
42.60963867118059
 20
50.7186107060269
 10
42.60963867118104
 20
48.42694403936026
 10
46.23463867118104
 20
48.42694403936026
 10
46.23463867118059
 20
50.7186107060269
 97
        0
 75
     0
 76
     1
 52
90.0
 41
12.0
 77
     0
 78
     1
 53
135.0
 43
-353.5184337647969
 44
-55.59647824135272
 45
-1.060660171779821
 46
-1.060660171779821
 79
     0
 47
0.050878204731862
 98
        1
 10
44.62661425220008
 20
49.65762767872208
  0
LINE
  5
830
330
1F
100
AcDbEntity
  8
S-ARCH'L BRICK
100
AcDbLine
 10
42.60963867118036
 20
51.09361070602691
 30
0.0
 11
46.23463867118036
 21
51.09361070602691
 31
0.0
  0
LINE
  5
831
330
1F
100
AcDbEntity
  8
S-ARCH'L BRICK
100
AcDbLine
 10
42.60963867118059
 20
50.71861070602689
 30
0.0
 11
42.60963867118104
 21
48.42694403936025
 31
0.0
  0
LINE
  5
832
330
1F
100
AcDbEntity
  8
S-ARCH'L BRICK
100
AcDbLine
 10
42.60963867118104
 20
48.05194403936026
 30
0.0
 11
42.6096386711815
 21
45.76027737269362
 31
0.0
  0
ARC
  5
833
330
1F
100
AcDbEntity
  8
S-ARCH'L BRICK
100
AcDbCircle
 10
42.6096386711815
 20
45.57277737269362
 30
0.0
 40
0.1875
100
AcDbArc
 50
270.0
 51
90.0
  0
ARC
  5
834
330
1F
100
AcDbEntity
  8
S-ARCH'L BRICK
100
AcDbCircle
 10
42.60963867118104
 20
48.23944403936025
 30
0.0
 40
0.1875
100
AcDbArc
 50
270.0
 51
90.0
  0
ARC
  5
835
330
1F
100
AcDbEntity
  8
S-ARCH'L BRICK
100
AcDbCircle
 10
42.60963867118059
 20
50.90611070602689
 30
0.0
 40
0.1875
100
AcDbArc
 50
270.0
 51
90.0
  0
LINE
  5
836
330
1F
100
AcDbEntity
  8
S-ARCH'L BRICK
100
AcDbLine
 10
46.23463867118104
 20
48.42694403936025
 30
0.0
 11
46.23463867118059
 21
50.71861070602689
 31
0.0
  0
LINE
  5
837
330
1F
100
AcDbEntity
  8
S-ARCH'L BRICK
100
AcDbLine
 10
46.23463867118149
 20
45.76027737269362
 30
0.0
 11
46.23463867118104
 21
48.05194403936026
 31
0.0
  0
ARC
  5
838
330
1F
100
AcDbEntity
  8
S-ARCH'L BRICK
100
AcDbCircle
 10
46.23463867118149
 20
45.57277737269362
 30
0.0
 40
0.1875
100
AcDbArc
 50
90.0
 51
270.0
  0
ARC
  5
839
330
1F
100
AcDbEntity
  8
S-ARCH'L BRICK
100
AcDbCircle
 10
46.23463867118104
 20
48.23944403936025
 30
0.0
 40
0.1875
100
AcDbArc
 50
90.0
 51
270.0
  0
ARC
  5
83A
330
1F
100
AcDbEntity
  8
S-ARCH'L BRICK
100
AcDbCircle
 10
46.23463867118059
 20
50.90611070602689
 30
0.0
 40
0.1875
100
AcDbArc
 50
90.0
 51
270.0
  0
LINE
  5
83B
330
1F
100
AcDbEntity
  8
S-ARCH'L BRICK
100
AcDbLine
 10
42.60963867117877
 20
59.09361070602684
 30
0.0
 11
46.23463867117877
 21
59.09361070602684
 31
0.0
  0
LINE
  5
83C
330
1F
100
AcDbEntity
  8
S-ARCH'L BRICK
100
AcDbLine
 10
42.60963867117991
 20
53.38527737269354
 30
0.0
 11
46.2346386711799
 21
53.38527737269354
 31
0.0
  0
LINE
  5
83D
330
1F
100
AcDbEntity
  8
S-ARCH'L BRICK
100
AcDbLine
 10
42.60963867117991
 20
53.76027737269354
 30
0.0
 11
46.2346386711799
 21
53.76027737269354
 31
0.0
  0
LINE
  5
83E
330
1F
100
AcDbEntity
  8
S-ARCH'L BRICK
100
AcDbLine
 10
42.60963867117945
 20
56.05194403936017
 30
0.0
 11
46.23463867117945
 21
56.05194403936017
 31
0.0
  0
LINE
  5
83F
330
1F
100
AcDbEntity
  8
S-ARCH'L BRICK
100
AcDbLine
 10
42.60963867117945
 20
56.42694403936018
 30
0.0
 11
46.23463867117945
 21
56.42694403936018
 31
0.0
  0
LINE
  5
840
330
1F
100
AcDbEntity
  8
S-ARCH'L BRICK
100
AcDbLine
 10
42.609638671179
 20
58.71861070602681
 30
0.0
 11
46.234638671179
 21
58.71861070602681
 31
0.0
  0
HATCH
  5
841
330
1F
100
AcDbEntity
  8
S-PATT MAS
100
AcDbHatch
 10
0.0
 20
0.0
 30
0.0
210
0.0
220
0.0
230
1.0
  2
ANSI31
 70
     0
 71
     0
 91
        1
 92
        7
 72
     0
 73
     1
 93
        4
 10
42.60963867117991
 20
53.76027737269355
 10
46.2346386711799
 20
53.76027737269355
 10
46.23463867117945
 20
56.05194403936017
 10
42.60963867117945
 20
56.05194403936017
 97
        0
 75
     0
 76
     1
 52
90.0
 41
12.0
 77
     0
 78
     1
 53
135.0
 43
-353.5184337647985
 44
-47.59647824135281
 45
-1.060660171779821
 46
-1.060660171779821
 79
     0
 47
0.050878204731862
 98
        1
 10
43.40425891963278
 20
54.9102043851373
  0
HATCH
  5
842
330
1F
100
AcDbEntity
  8
S-PATT MAS
100
AcDbHatch
 10
0.0
 20
0.0
 30
0.0
210
0.0
220
0.0
230
1.0
  2
ANSI31
 70
     0
 71
     0
 91
        1
 92
        7
 72
     0
 73
     1
 93
        4
 10
42.609638671179
 20
58.71861070602681
 10
42.60963867117945
 20
56.42694403936018
 10
46.23463867117945
 20
56.42694403936018
 10
46.234638671179
 20
58.71861070602681
 97
        0
 75
     0
 76
     1
 52
90.0
 41
12.0
 77
     0
 78
     1
 53
135.0
 43
-353.5184337647985
 44
-47.59647824135281
 45
-1.060660171779821
 46
-1.060660171779821
 79
     0
 47
0.050878204731862
 98
        1
 10
44.62661425219849
 20
57.657627678722
  0
LINE
  5
843
330
1F
100
AcDbEntity
  8
S-ARCH'L BRICK
100
AcDbLine
 10
42.609638671179
 20
58.71861070602681
 30
0.0
 11
42.60963867117945
 21
56.42694403936018
 31
0.0
  0
LINE
  5
844
330
1F
100
AcDbEntity
  8
S-ARCH'L BRICK
100
AcDbLine
 10
42.60963867117945
 20
56.05194403936017
 30
0.0
 11
42.60963867117991
 21
53.76027737269354
 31
0.0
  0
ARC
  5
845
330
1F
100
AcDbEntity
  8
S-ARCH'L BRICK
100
AcDbCircle
 10
42.60963867117991
 20
53.57277737269354
 30
0.0
 40
0.1875
100
AcDbArc
 50
270.0
 51
90.0
  0
ARC
  5
846
330
1F
100
AcDbEntity
  8
S-ARCH'L BRICK
100
AcDbCircle
 10
42.60963867117945
 20
56.23944403936018
 30
0.0
 40
0.1875
100
AcDbArc
 50
270.0
 51
90.0
  0
ARC
  5
847
330
1F
100
AcDbEntity
  8
S-ARCH'L BRICK
100
AcDbCircle
 10
42.609638671179
 20
58.9061107060268
 30
0.0
 40
0.1875
100
AcDbArc
 50
270.0
 51
90.0
  0
LINE
  5
848
330
1F
100
AcDbEntity
  8
S-ARCH'L BRICK
100
AcDbLine
 10
46.23463867117945
 20
56.42694403936018
 30
0.0
 11
46.234638671179
 21
58.71861070602681
 31
0.0
  0
LINE
  5
849
330
1F
100
AcDbEntity
  8
S-ARCH'L BRICK
100
AcDbLine
 10
46.2346386711799
 20
53.76027737269354
 30
0.0
 11
46.23463867117945
 21
56.05194403936017
 31
0.0
  0
ARC
  5
84A
330
1F
100
AcDbEntity
  8
S-ARCH'L BRICK
100
AcDbCircle
 10
46.2346386711799
 20
53.57277737269354
 30
0.0
 40
0.1875
100
AcDbArc
 50
90.0
 51
270.0
  0
ARC
  5
84B
330
1F
100
AcDbEntity
  8
S-ARCH'L BRICK
100
AcDbCircle
 10
46.23463867117945
 20
56.23944403936018
 30
0.0
 40
0.1875
100
AcDbArc
 50
90.0
 51
270.0
  0
ARC
  5
84C
330
1F
100
AcDbEntity
  8
S-ARCH'L BRICK
100
AcDbCircle
 10
46.234638671179
 20
58.9061107060268
 30
0.0
 40
0.1875
100
AcDbArc
 50
90.0
 51
270.0
  0
MTEXT
  5
84D
330
1F
100
AcDbEntity
  8
S-TEXT
100
AcDbMText
 10
7.249744056287596
 20
95.5144456532944
 30
0.0
 40
1.5
 41
17.83244906340246
 71
     1
 72
     5
  1
BRICK, SEE ARCH'L.
  7
SIMPLEX
 73
     1
 44
1.0
1001
ACAD
1000
MTEXTBEGIN
1070
    73
1070
     1
1070
    44
1040
1.0
1070
    74
1070
     0
1000
MTEXTEND
  0
LINE
  5
84E
330
1F
100
AcDbEntity
  8
S-ARCH'L BRICK
100
AcDbLine
 10
46.23463867117195
 20
93.76027737269309
 30
0.0
 11
46.23463867117149
 21
96.05194403935971
 31
0.0
  0
LINE
  5
84F
330
1F
100
AcDbEntity
  8
S-ARCH'L BRICK
100
AcDbLine
 10
42.60963867117149
 20
96.05194403935971
 30
0.0
 11
42.60963867117195
 21
93.76027737269309
 31
0.0
  0
HATCH
  5
850
330
1F
100
AcDbEntity
  8
S-PATT MAS
100
AcDbHatch
 10
0.0
 20
0.0
 30
0.0
210
0.0
220
0.0
230
1.0
  2
ANSI31
 70
     0
 71
     0
 91
        1
 92
        7
 72
     0
 73
     1
 93
        4
 10
42.60963867117195
 20
93.76027737269309
 10
46.23463867117195
 20
93.76027737269309
 10
46.23463867117149
 20
96.05194403935973
 10
42.60963867117149
 20
96.05194403935973
 97
        0
 75
     0
 76
     1
 52
90.0
 41
12.0
 77
     0
 78
     1
 53
135.0
 43
-353.5184337648065
 44
-7.596478241353281
 45
-1.060660171779821
 46
-1.060660171779821
 79
     0
 47
0.050878204731862
 98
        1
 10
43.40425891962482
 20
94.91020438513684
  0
ARC
  5
851
330
1F
100
AcDbEntity
  8
S-ARCH'L BRICK
100
AcDbCircle
 10
46.23463867117513
 20
77.57277737269331
 30
0.0
 40
0.1875
100
AcDbArc
 50
90.0
 51
270.0
  0
ARC
  5
852
330
1F
100
AcDbEntity
  8
S-ARCH'L BRICK
100
AcDbCircle
 10
42.60963867117513
 20
77.57277737269331
 30
0.0
 40
0.1875
100
AcDbArc
 50
270.0
 51
90.0
  0
ARC
  5
853
330
1F
100
AcDbEntity
  8
S-ARCH'L BRICK
100
AcDbCircle
 10
46.23463867117672
 20
69.57277737269338
 30
0.0
 40
0.1875
100
AcDbArc
 50
90.0
 51
270.0
  0
ARC
  5
854
330
1F
100
AcDbEntity
  8
S-ARCH'L BRICK
100
AcDbCircle
 10
42.60963867117673
 20
69.57277737269338
 30
0.0
 40
0.1875
100
AcDbArc
 50
270.0
 51
90.0
  0
LINE
  5
855
330
1F
100
AcDbEntity
  8
S-ARCH'L BRICK
100
AcDbLine
 10
42.60963867117832
 20
61.38527737269346
 30
0.0
 11
46.23463867117831
 21
61.38527737269346
 31
0.0
  0
LINE
  5
856
330
1F
100
AcDbEntity
  8
S-ARCH'L BRICK
100
AcDbLine
 10
42.60963867117832
 20
61.76027737269347
 30
0.0
 11
46.23463867117831
 21
61.76027737269347
 31
0.0
  0
LINE
  5
857
330
1F
100
AcDbEntity
  8
S-ARCH'L BRICK
100
AcDbLine
 10
42.60963867117786
 20
64.05194403936009
 30
0.0
 11
46.23463867117786
 21
64.05194403936009
 31
0.0
  0
LINE
  5
858
330
1F
100
AcDbEntity
  8
S-ARCH'L BRICK
100
AcDbLine
 10
42.60963867117786
 20
64.42694403936009
 30
0.0
 11
46.23463867117786
 21
64.42694403936009
 31
0.0
  0
LINE
  5
859
330
1F
100
AcDbEntity
  8
S-ARCH'L BRICK
100
AcDbLine
 10
42.6096386711774
 20
66.71861070602672
 30
0.0
 11
46.23463867117741
 21
66.71861070602672
 31
0.0
  0
HATCH
  5
85A
330
1F
100
AcDbEntity
  8
S-PATT MAS
100
AcDbHatch
 10
0.0
 20
0.0
 30
0.0
210
0.0
220
0.0
230
1.0
  2
ANSI31
 70
     0
 71
     0
 91
        1
 92
        7
 72
     0
 73
     1
 93
        4
 10
42.60963867117832
 20
61.76027737269347
 10
46.23463867117831
 20
61.76027737269347
 10
46.23463867117786
 20
64.05194403936009
 10
42.60963867117786
 20
64.05194403936009
 97
        0
 75
     0
 76
     1
 52
90.0
 41
12.0
 77
     0
 78
     1
 53
135.0
 43
-353.5184337648001
 44
-39.59647824135291
 45
-1.060660171779821
 46
-1.060660171779821
 79
     0
 47
0.050878204731862
 98
        1
 10
43.40425891963119
 20
62.91020438513722
  0
HATCH
  5
85B
330
1F
100
AcDbEntity
  8
S-PATT MAS
100
AcDbHatch
 10
0.0
 20
0.0
 30
0.0
210
0.0
220
0.0
230
1.0
  2
ANSI31
 70
     0
 71
     0
 91
        1
 92
        7
 72
     0
 73
     1
 93
        4
 10
42.6096386711774
 20
66.71861070602672
 10
42.60963867117786
 20
64.42694403936009
 10
46.23463867117786
 20
64.42694403936009
 10
46.23463867117741
 20
66.71861070602672
 97
        0
 75
     0
 76
     1
 52
90.0
 41
12.0
 77
     0
 78
     1
 53
135.0
 43
-353.5184337648001
 44
-39.59647824135291
 45
-1.060660171779821
 46
-1.060660171779821
 79
     0
 47
0.050878204731862
 98
        1
 10
44.6266142521969
 20
65.65762767872191
  0
LINE
  5
85C
330
1F
100
AcDbEntity
  8
S-ARCH'L BRICK
100
AcDbLine
 10
42.60963867117673
 20
69.38527737269338
 30
0.0
 11
46.23463867117672
 21
69.38527737269338
 31
0.0
  0
LINE
  5
85D
330
1F
100
AcDbEntity
  8
S-ARCH'L BRICK
100
AcDbLine
 10
42.60963867117718
 20
67.09361070602675
 30
0.0
 11
46.23463867117718
 21
67.09361070602675
 31
0.0
  0
HATCH
  5
85E
330
1F
100
AcDbEntity
  8
S-PATT MAS
100
AcDbHatch
 10
0.0
 20
0.0
 30
0.0
210
0.0
220
0.0
230
1.0
  2
ANSI31
 70
     0
 71
     0
 91
        1
 92
        7
 72
     0
 73
     1
 93
        4
 10
42.60963867117673
 20
69.38527737269338
 10
42.60963867117718
 20
67.09361070602675
 10
46.23463867117718
 20
67.09361070602675
 10
46.23463867117672
 20
69.38527737269338
 97
        0
 75
     0
 76
     1
 52
90.0
 41
12.0
 77
     0
 78
     1
 53
135.0
 43
-353.5184337648017
 44
-31.596478241353
 45
-1.060660171779821
 46
-1.060660171779821
 79
     0
 47
0.0411796682187945
 98
        1
 10
44.43360740931431
 20
68.43963178478542
  0
LINE
  5
85F
330
1F
100
AcDbEntity
  8
S-ARCH'L BRICK
100
AcDbLine
 10
42.6096386711774
 20
66.71861070602672
 30
0.0
 11
42.60963867117786
 21
64.42694403936009
 31
0.0
  0
LINE
  5
860
330
1F
100
AcDbEntity
  8
S-ARCH'L BRICK
100
AcDbLine
 10
42.60963867117786
 20
64.05194403936009
 30
0.0
 11
42.60963867117832
 21
61.76027737269347
 31
0.0
  0
ARC
  5
861
330
1F
100
AcDbEntity
  8
S-ARCH'L BRICK
100
AcDbCircle
 10
42.60963867117832
 20
61.57277737269346
 30
0.0
 40
0.1875
100
AcDbArc
 50
270.0
 51
90.0
  0
ARC
  5
862
330
1F
100
AcDbEntity
  8
S-ARCH'L BRICK
100
AcDbCircle
 10
42.60963867117786
 20
64.23944403936009
 30
0.0
 40
0.1875
100
AcDbArc
 50
270.0
 51
90.0
  0
LINE
  5
863
330
1F
100
AcDbEntity
  8
S-ARCH'L BRICK
100
AcDbLine
 10
42.60963867117673
 20
69.38527737269338
 30
0.0
 11
42.60963867117718
 21
67.09361070602675
 31
0.0
  0
ARC
  5
864
330
1F
100
AcDbEntity
  8
S-ARCH'L BRICK
100
AcDbCircle
 10
42.6096386711774
 20
66.90611070602672
 30
0.0
 40
0.1875
100
AcDbArc
 50
270.0
 51
90.0
  0
LINE
  5
865
330
1F
100
AcDbEntity
  8
S-ARCH'L BRICK
100
AcDbLine
 10
46.23463867117786
 20
64.42694403936009
 30
0.0
 11
46.23463867117741
 21
66.71861070602672
 31
0.0
  0
LINE
  5
866
330
1F
100
AcDbEntity
  8
S-ARCH'L BRICK
100
AcDbLine
 10
46.23463867117831
 20
61.76027737269347
 30
0.0
 11
46.23463867117786
 21
64.05194403936009
 31
0.0
  0
ARC
  5
867
330
1F
100
AcDbEntity
  8
S-ARCH'L BRICK
100
AcDbCircle
 10
46.23463867117831
 20
61.57277737269346
 30
0.0
 40
0.1875
100
AcDbArc
 50
90.0
 51
270.0
  0
ARC
  5
868
330
1F
100
AcDbEntity
  8
S-ARCH'L BRICK
100
AcDbCircle
 10
46.23463867117786
 20
64.23944403936009
 30
0.0
 40
0.1875
100
AcDbArc
 50
90.0
 51
270.0
  0
LINE
  5
869
330
1F
100
AcDbEntity
  8
S-ARCH'L BRICK
100
AcDbLine
 10
46.23463867117718
 20
67.09361070602675
 30
0.0
 11
46.23463867117672
 21
69.38527737269338
 31
0.0
  0
ARC
  5
86A
330
1F
100
AcDbEntity
  8
S-ARCH'L BRICK
100
AcDbCircle
 10
46.23463867117741
 20
66.90611070602672
 30
0.0
 40
0.1875
100
AcDbArc
 50
90.0
 51
270.0
  0
LINE
  5
86B
330
1F
100
AcDbEntity
  8
S-ARCH'L BRICK
100
AcDbLine
 10
42.60963867117673
 20
69.76027737269338
 30
0.0
 11
46.23463867117672
 21
69.76027737269338
 31
0.0
  0
LINE
  5
86C
330
1F
100
AcDbEntity
  8
S-ARCH'L BRICK
100
AcDbLine
 10
42.60963867117626
 20
72.05194403936001
 30
0.0
 11
46.23463867117627
 21
72.05194403936001
 31
0.0
  0
LINE
  5
86D
330
1F
100
AcDbEntity
  8
S-ARCH'L BRICK
100
AcDbLine
 10
42.60963867117626
 20
72.42694403936001
 30
0.0
 11
46.23463867117627
 21
72.42694403936001
 31
0.0
  0
LINE
  5
86E
330
1F
100
AcDbEntity
  8
S-ARCH'L BRICK
100
AcDbLine
 10
42.60963867117581
 20
74.71861070602663
 30
0.0
 11
46.23463867117581
 21
74.71861070602663
 31
0.0
  0
HATCH
  5
86F
330
1F
100
AcDbEntity
  8
S-PATT MAS
100
AcDbHatch
 10
0.0
 20
0.0
 30
0.0
210
0.0
220
0.0
230
1.0
  2
ANSI31
 70
     0
 71
     0
 91
        1
 92
        7
 72
     0
 73
     1
 93
        4
 10
42.60963867117673
 20
69.76027737269338
 10
46.23463867117672
 20
69.76027737269338
 10
46.23463867117627
 20
72.05194403936001
 10
42.60963867117626
 20
72.05194403936001
 97
        0
 75
     0
 76
     1
 52
90.0
 41
12.0
 77
     0
 78
     1
 53
135.0
 43
-353.5184337648017
 44
-31.596478241353
 45
-1.060660171779821
 46
-1.060660171779821
 79
     0
 47
0.050878204731862
 98
        1
 10
43.4042589196296
 20
70.91020438513713
  0
HATCH
  5
870
330
1F
100
AcDbEntity
  8
S-PATT MAS
100
AcDbHatch
 10
0.0
 20
0.0
 30
0.0
210
0.0
220
0.0
230
1.0
  2
ANSI31
 70
     0
 71
     0
 91
        1
 92
        7
 72
     0
 73
     1
 93
        4
 10
42.60963867117581
 20
74.71861070602663
 10
42.60963867117626
 20
72.42694403936001
 10
46.23463867117627
 20
72.42694403936001
 10
46.23463867117581
 20
74.71861070602663
 97
        0
 75
     0
 76
     1
 52
90.0
 41
12.0
 77
     0
 78
     1
 53
135.0
 43
-353.5184337648017
 44
-31.596478241353
 45
-1.060660171779821
 46
-1.060660171779821
 79
     0
 47
0.050878204731862
 98
        1
 10
44.62661425219531
 20
73.65762767872182
  0
LINE
  5
871
330
1F
100
AcDbEntity
  8
S-ARCH'L BRICK
100
AcDbLine
 10
42.60963867117513
 20
77.38527737269331
 30
0.0
 11
46.23463867117513
 21
77.38527737269331
 31
0.0
  0
LINE
  5
872
330
1F
100
AcDbEntity
  8
S-ARCH'L BRICK
100
AcDbLine
 10
42.60963867117559
 20
75.09361070602668
 30
0.0
 11
46.23463867117559
 21
75.09361070602668
 31
0.0
  0
HATCH
  5
873
330
1F
100
AcDbEntity
  8
S-PATT MAS
100
AcDbHatch
 10
0.0
 20
0.0
 30
0.0
210
0.0
220
0.0
230
1.0
  2
ANSI31
 70
     0
 71
     0
 91
        1
 92
        7
 72
     0
 73
     1
 93
        4
 10
42.60963867117513
 20
77.38527737269329
 10
42.60963867117559
 20
75.09361070602666
 10
46.23463867117559
 20
75.09361070602666
 10
46.23463867117513
 20
77.38527737269329
 97
        0
 75
     0
 76
     1
 52
90.0
 41
12.0
 77
     0
 78
     1
 53
135.0
 43
-353.5184337648033
 44
-23.59647824135308
 45
-1.060660171779821
 46
-1.060660171779821
 79
     0
 47
0.0411796682187945
 98
        1
 10
44.43360740931271
 20
76.43963178478533
  0
LINE
  5
874
330
1F
100
AcDbEntity
  8
S-ARCH'L BRICK
100
AcDbLine
 10
42.60963867117581
 20
74.71861070602663
 30
0.0
 11
42.60963867117626
 21
72.42694403936001
 31
0.0
  0
LINE
  5
875
330
1F
100
AcDbEntity
  8
S-ARCH'L BRICK
100
AcDbLine
 10
42.60963867117626
 20
72.05194403936001
 30
0.0
 11
42.60963867117673
 21
69.76027737269338
 31
0.0
  0
ARC
  5
876
330
1F
100
AcDbEntity
  8
S-ARCH'L BRICK
100
AcDbCircle
 10
42.60963867117626
 20
72.23944403936001
 30
0.0
 40
0.1875
100
AcDbArc
 50
270.0
 51
90.0
  0
LINE
  5
877
330
1F
100
AcDbEntity
  8
S-ARCH'L BRICK
100
AcDbLine
 10
42.60963867117513
 20
77.38527737269331
 30
0.0
 11
42.60963867117559
 21
75.09361070602668
 31
0.0
  0
ARC
  5
878
330
1F
100
AcDbEntity
  8
S-ARCH'L BRICK
100
AcDbCircle
 10
42.60963867117581
 20
74.90611070602664
 30
0.0
 40
0.1875
100
AcDbArc
 50
270.0
 51
90.0
  0
LINE
  5
879
330
1F
100
AcDbEntity
  8
S-ARCH'L BRICK
100
AcDbLine
 10
46.23463867117627
 20
72.42694403936001
 30
0.0
 11
46.23463867117581
 21
74.71861070602663
 31
0.0
  0
LINE
  5
87A
330
1F
100
AcDbEntity
  8
S-ARCH'L BRICK
100
AcDbLine
 10
46.23463867117672
 20
69.76027737269338
 30
0.0
 11
46.23463867117627
 21
72.05194403936001
 31
0.0
  0
ARC
  5
87B
330
1F
100
AcDbEntity
  8
S-ARCH'L BRICK
100
AcDbCircle
 10
46.23463867117627
 20
72.23944403936001
 30
0.0
 40
0.1875
100
AcDbArc
 50
90.0
 51
270.0
  0
LINE
  5
87C
330
1F
100
AcDbEntity
  8
S-ARCH'L BRICK
100
AcDbLine
 10
46.23463867117559
 20
75.09361070602668
 30
0.0
 11
46.23463867117513
 21
77.38527737269331
 31
0.0
  0
ARC
  5
87D
330
1F
100
AcDbEntity
  8
S-ARCH'L BRICK
100
AcDbCircle
 10
46.23463867117581
 20
74.90611070602664
 30
0.0
 40
0.1875
100
AcDbArc
 50
90.0
 51
270.0
  0
LWPOLYLINE
  5
87E
330
1F
100
AcDbEntity
  8
S-LEADER
100
AcDbPolyline
 90
        2
 70
     0
 43
0.0
 10
42.27630533784119
 20
94.57147063954126
 10
26.15925447748197
 20
94.57147063954126
1001
ACAD
1000
DSTYLE
1002
{
1070
   147
1040
0.375
1070
    77
1070
     0
1002
}
  0
ARC
  5
87F
330
1F
100
AcDbEntity
  8
S-ARCH'L BRICK
100
AcDbCircle
 10
46.23463867117513
 20
85.5727773726933
 30
0.0
 40
0.1875
100
AcDbArc
 50
90.0
 51
270.0
  0
ARC
  5
880
330
1F
100
AcDbEntity
  8
S-ARCH'L BRICK
100
AcDbCircle
 10
42.60963867117513
 20
85.5727773726933
 30
0.0
 40
0.1875
100
AcDbArc
 50
270.0
 51
90.0
  0
LINE
  5
881
330
1F
100
AcDbEntity
  8
S-ARCH'L BRICK
100
AcDbLine
 10
42.60963867117513
 20
85.38527737269332
 30
0.0
 11
46.23463867117513
 21
85.38527737269332
 31
0.0
  0
LINE
  5
882
330
1F
100
AcDbEntity
  8
S-ARCH'L BRICK
100
AcDbLine
 10
42.60963867117559
 20
83.09361070602667
 30
0.0
 11
46.23463867117559
 21
83.09361070602667
 31
0.0
  0
HATCH
  5
883
330
1F
100
AcDbEntity
  8
S-PATT MAS
100
AcDbHatch
 10
0.0
 20
0.0
 30
0.0
210
0.0
220
0.0
230
1.0
  2
ANSI31
 70
     0
 71
     0
 91
        1
 92
        7
 72
     0
 73
     1
 93
        4
 10
42.60963867117513
 20
85.3852773726933
 10
42.60963867117559
 20
83.09361070602667
 10
46.23463867117559
 20
83.09361070602667
 10
46.23463867117513
 20
85.3852773726933
 97
        0
 75
     0
 76
     1
 52
90.0
 41
12.0
 77
     0
 78
     1
 53
135.0
 43
-353.5184337648033
 44
-15.59647824135308
 45
-1.060660171779821
 46
-1.060660171779821
 79
     0
 47
0.0411796682187945
 98
        1
 10
44.43360740931271
 20
84.43963178478533
  0
LINE
  5
884
330
1F
100
AcDbEntity
  8
S-ARCH'L BRICK
100
AcDbLine
 10
42.60963867117513
 20
77.7602773726933
 30
0.0
 11
46.23463867117513
 21
77.7602773726933
 31
0.0
  0
LINE
  5
885
330
1F
100
AcDbEntity
  8
S-ARCH'L BRICK
100
AcDbLine
 10
42.60963867117467
 20
80.05194403935993
 30
0.0
 11
46.23463867117467
 21
80.05194403935993
 31
0.0
  0
LINE
  5
886
330
1F
100
AcDbEntity
  8
S-ARCH'L BRICK
100
AcDbLine
 10
42.60963867117467
 20
80.42694403935994
 30
0.0
 11
46.23463867117467
 21
80.42694403935994
 31
0.0
  0
LINE
  5
887
330
1F
100
AcDbEntity
  8
S-ARCH'L BRICK
100
AcDbLine
 10
42.60963867117422
 20
82.71861070602657
 30
0.0
 11
46.23463867117422
 21
82.71861070602657
 31
0.0
  0
HATCH
  5
888
330
1F
100
AcDbEntity
  8
S-PATT MAS
100
AcDbHatch
 10
0.0
 20
0.0
 30
0.0
210
0.0
220
0.0
230
1.0
  2
ANSI31
 70
     0
 71
     0
 91
        1
 92
        7
 72
     0
 73
     1
 93
        4
 10
42.60963867117513
 20
77.7602773726933
 10
46.23463867117513
 20
77.7602773726933
 10
46.23463867117467
 20
80.05194403935993
 10
42.60963867117467
 20
80.05194403935993
 97
        0
 75
     0
 76
     1
 52
90.0
 41
12.0
 77
     0
 78
     1
 53
135.0
 43
-353.5184337648033
 44
-23.59647824135308
 45
-1.060660171779821
 46
-1.060660171779821
 79
     0
 47
0.050878204731862
 98
        1
 10
43.40425891962801
 20
78.91020438513705
  0
HATCH
  5
889
330
1F
100
AcDbEntity
  8
S-PATT MAS
100
AcDbHatch
 10
0.0
 20
0.0
 30
0.0
210
0.0
220
0.0
230
1.0
  2
ANSI31
 70
     0
 71
     0
 91
        1
 92
        7
 72
     0
 73
     1
 93
        4
 10
42.60963867117422
 20
82.71861070602655
 10
42.60963867117467
 20
80.42694403935993
 10
46.23463867117467
 20
80.42694403935993
 10
46.23463867117422
 20
82.71861070602655
 97
        0
 75
     0
 76
     1
 52
90.0
 41
12.0
 77
     0
 78
     1
 53
135.0
 43
-353.5184337648033
 44
-23.59647824135308
 45
-1.060660171779821
 46
-1.060660171779821
 79
     0
 47
0.050878204731862
 98
        1
 10
44.62661425219372
 20
81.65762767872173
  0
LINE
  5
88A
330
1F
100
AcDbEntity
  8
S-ARCH'L BRICK
100
AcDbLine
 10
42.60963867117422
 20
82.71861070602657
 30
0.0
 11
42.60963867117467
 21
80.42694403935994
 31
0.0
  0
INSERT
  5
88B
330
1F
100
AcDbEntity
  8
S-ARROW HEAD
100
AcDbBlockReference
  2
axarrow
 10
42.60963867117445
 20
94.57147063954124
 30
0.0
 41
16.0
 42
16.0
 43
16.0
1001
ACAD
1000
DSTYLE
1002
{
1070
   147
1040
0.375
1070
    77
1070
     0
1002
}
  0
LINE
  5
88C
330
1F
100
AcDbEntity
  8
S-ARCH'L BRICK
100
AcDbLine
 10
42.60963867117467
 20
80.05194403935993
 30
0.0
 11
42.60963867117513
 21
77.7602773726933
 31
0.0
  0
ARC
  5
88D
330
1F
100
AcDbEntity
  8
S-ARCH'L BRICK
100
AcDbCircle
 10
42.60963867117467
 20
80.23944403935994
 30
0.0
 40
0.1875
100
AcDbArc
 50
270.0
 51
90.0
  0
LINE
  5
88E
330
1F
100
AcDbEntity
  8
S-ARCH'L BRICK
100
AcDbLine
 10
42.60963867117513
 20
85.38527737269332
 30
0.0
 11
42.60963867117559
 21
83.09361070602667
 31
0.0
  0
ARC
  5
88F
330
1F
100
AcDbEntity
  8
S-ARCH'L BRICK
100
AcDbCircle
 10
42.60963867117581
 20
82.90611070602663
 30
0.0
 40
0.1875
100
AcDbArc
 50
270.0
 51
90.0
  0
LINE
  5
890
330
1F
100
AcDbEntity
  8
S-ARCH'L BRICK
100
AcDbLine
 10
46.23463867117467
 20
80.42694403935994
 30
0.0
 11
46.23463867117422
 21
82.71861070602657
 31
0.0
  0
LINE
  5
891
330
1F
100
AcDbEntity
  8
S-ARCH'L BRICK
100
AcDbLine
 10
46.23463867117513
 20
77.7602773726933
 30
0.0
 11
46.23463867117467
 21
80.05194403935993
 31
0.0
  0
ARC
  5
892
330
1F
100
AcDbEntity
  8
S-ARCH'L BRICK
100
AcDbCircle
 10
46.23463867117467
 20
80.23944403935994
 30
0.0
 40
0.1875
100
AcDbArc
 50
90.0
 51
270.0
  0
LINE
  5
893
330
1F
100
AcDbEntity
  8
S-ARCH'L BRICK
100
AcDbLine
 10
46.23463867117559
 20
83.09361070602667
 30
0.0
 11
46.23463867117513
 21
85.38527737269332
 31
0.0
  0
ARC
  5
894
330
1F
100
AcDbEntity
  8
S-ARCH'L BRICK
100
AcDbCircle
 10
46.23463867117581
 20
82.90611070602663
 30
0.0
 40
0.1875
100
AcDbArc
 50
90.0
 51
270.0
  0
LINE
  5
895
330
1F
100
AcDbEntity
  8
S-ARCH'L BRICK
100
AcDbLine
 10
42.60963867117195
 20
93.38527737269307
 30
0.0
 11
46.23463867117195
 21
93.38527737269307
 31
0.0
  0
LINE
  5
896
330
1F
100
AcDbEntity
  8
S-ARCH'L BRICK
100
AcDbLine
 10
42.60963867117195
 20
93.76027737269309
 30
0.0
 11
46.23463867117195
 21
93.76027737269309
 31
0.0
  0
LINE
  5
897
330
1F
100
AcDbEntity
  8
S-ARCH'L BRICK
100
AcDbLine
 10
42.6096386711724
 20
91.09361070602645
 30
0.0
 11
46.2346386711724
 21
91.09361070602645
 31
0.0
  0
HATCH
  5
898
330
1F
100
AcDbEntity
  8
S-PATT MAS
100
AcDbHatch
 10
0.0
 20
0.0
 30
0.0
210
0.0
220
0.0
230
1.0
  2
ANSI31
 70
     0
 71
     0
 91
        1
 92
        7
 72
     0
 73
     1
 93
        4
 10
42.60963867117195
 20
93.38527737269309
 10
42.6096386711724
 20
91.09361070602647
 10
46.2346386711724
 20
91.09361070602647
 10
46.23463867117195
 20
93.38527737269309
 97
        0
 75
     0
 76
     1
 52
90.0
 41
12.0
 77
     0
 78
     1
 53
135.0
 43
-353.5184337648065
 44
-7.596478241353281
 45
-1.060660171779821
 46
-1.060660171779821
 79
     0
 47
0.0411796682187945
 98
        1
 10
44.43360740930953
 20
92.43963178478514
  0
LINE
  5
899
330
1F
100
AcDbEntity
  8
S-ARCH'L BRICK
100
AcDbLine
 10
42.60963867117513
 20
85.76027737269331
 30
0.0
 11
46.23463867117513
 21
85.76027737269331
 31
0.0
  0
LINE
  5
89A
330
1F
100
AcDbEntity
  8
S-ARCH'L BRICK
100
AcDbLine
 10
42.60963867117467
 20
88.05194403935994
 30
0.0
 11
46.23463867117467
 21
88.05194403935994
 31
0.0
  0
LINE
  5
89B
330
1F
100
AcDbEntity
  8
S-ARCH'L BRICK
100
AcDbLine
 10
42.60963867117467
 20
88.42694403935993
 30
0.0
 11
46.23463867117467
 21
88.42694403935993
 31
0.0
  0
LINE
  5
89C
330
1F
100
AcDbEntity
  8
S-ARCH'L BRICK
100
AcDbLine
 10
42.60963867117422
 20
90.71861070602656
 30
0.0
 11
46.23463867117422
 21
90.71861070602656
 31
0.0
  0
HATCH
  5
89D
330
1F
100
AcDbEntity
  8
S-PATT MAS
100
AcDbHatch
 10
0.0
 20
0.0
 30
0.0
210
0.0
220
0.0
230
1.0
  2
ANSI31
 70
     0
 71
     0
 91
        1
 92
        7
 72
     0
 73
     1
 93
        4
 10
42.60963867117513
 20
85.76027737269329
 10
46.23463867117513
 20
85.76027737269329
 10
46.23463867117467
 20
88.05194403935992
 10
42.60963867117467
 20
88.05194403935992
 97
        0
 75
     0
 76
     1
 52
90.0
 41
12.0
 77
     0
 78
     1
 53
135.0
 43
-353.5184337648033
 44
-15.59647824135308
 45
-1.060660171779821
 46
-1.060660171779821
 79
     0
 47
0.050878204731862
 98
        1
 10
43.40425891962801
 20
86.91020438513705
  0
HATCH
  5
89E
330
1F
100
AcDbEntity
  8
S-PATT MAS
100
AcDbHatch
 10
0.0
 20
0.0
 30
0.0
210
0.0
220
0.0
230
1.0
  2
ANSI31
 70
     0
 71
     0
 91
        1
 92
        7
 72
     0
 73
     1
 93
        4
 10
42.60963867117422
 20
90.71861070602656
 10
42.60963867117467
 20
88.42694403935992
 10
46.23463867117467
 20
88.42694403935992
 10
46.23463867117422
 20
90.71861070602656
 97
        0
 75
     0
 76
     1
 52
90.0
 41
12.0
 77
     0
 78
     1
 53
135.0
 43
-353.5184337648033
 44
-15.59647824135308
 45
-1.060660171779821
 46
-1.060660171779821
 79
     0
 47
0.050878204731862
 98
        1
 10
44.62661425219372
 20
89.65762767872174
  0
LINE
  5
89F
330
1F
100
AcDbEntity
  8
S-ARCH'L BRICK
100
AcDbLine
 10
42.60963867117422
 20
90.71861070602656
 30
0.0
 11
42.60963867117467
 21
88.42694403935993
 31
0.0
  0
LINE
  5
8A0
330
1F
100
AcDbEntity
  8
S-ARCH'L BRICK
100
AcDbLine
 10
42.60963867117467
 20
88.05194403935994
 30
0.0
 11
42.60963867117513
 21
85.76027737269331
 31
0.0
  0
ARC
  5
8A1
330
1F
100
AcDbEntity
  8
S-ARCH'L BRICK
100
AcDbCircle
 10
42.60963867117467
 20
88.23944403935994
 30
0.0
 40
0.1875
100
AcDbArc
 50
270.0
 51
90.0
  0
LINE
  5
8A2
330
1F
100
AcDbEntity
  8
S-ARCH'L BRICK
100
AcDbLine
 10
42.60963867117195
 20
93.38527737269307
 30
0.0
 11
42.6096386711724
 21
91.09361070602645
 31
0.0
  0
ARC
  5
8A3
330
1F
100
AcDbEntity
  8
S-ARCH'L BRICK
100
AcDbCircle
 10
42.60963867117263
 20
90.90611070602646
 30
0.0
 40
0.1875
100
AcDbArc
 50
270.0
 51
90.0
  0
ARC
  5
8A4
330
1F
100
AcDbEntity
  8
S-ARCH'L BRICK
100
AcDbCircle
 10
42.60963867117195
 20
93.57277737269308
 30
0.0
 40
0.1875
100
AcDbArc
 50
270.0
 51
90.0
  0
LINE
  5
8A5
330
1F
100
AcDbEntity
  8
S-ARCH'L BRICK
100
AcDbLine
 10
46.23463867117467
 20
88.42694403935993
 30
0.0
 11
46.23463867117422
 21
90.71861070602656
 31
0.0
  0
LINE
  5
8A6
330
1F
100
AcDbEntity
  8
S-ARCH'L BRICK
100
AcDbLine
 10
46.23463867117513
 20
85.76027737269331
 30
0.0
 11
46.23463867117467
 21
88.05194403935994
 31
0.0
  0
ARC
  5
8A7
330
1F
100
AcDbEntity
  8
S-ARCH'L BRICK
100
AcDbCircle
 10
46.23463867117467
 20
88.23944403935994
 30
0.0
 40
0.1875
100
AcDbArc
 50
90.0
 51
270.0
  0
LINE
  5
8A8
330
1F
100
AcDbEntity
  8
S-ARCH'L BRICK
100
AcDbLine
 10
46.2346386711724
 20
91.09361070602645
 30
0.0
 11
46.23463867117195
 21
93.38527737269307
 31
0.0
  0
ARC
  5
8A9
330
1F
100
AcDbEntity
  8
S-ARCH'L BRICK
100
AcDbCircle
 10
46.23463867117263
 20
90.90611070602646
 30
0.0
 40
0.1875
100
AcDbArc
 50
90.0
 51
270.0
  0
ARC
  5
8AA
330
1F
100
AcDbEntity
  8
S-ARCH'L BRICK
100
AcDbCircle
 10
46.23463867117195
 20
93.57277737269308
 30
0.0
 40
0.1875
100
AcDbArc
 50
90.0
 51
270.0
  0
LINE
  5
8AB
330
1F
100
AcDbEntity
  8
S-ARCH'L BRICK
100
AcDbLine
 10
42.60963867117149
 20
96.05194403935971
 30
0.0
 11
46.23463867117149
 21
96.05194403935971
 31
0.0
  0
LINE
  5
8AC
330
1F
100
AcDbEntity
  8
S-ARCH'L BRICK
100
AcDbLine
 10
42.60963867117149
 20
96.42694403935971
 30
0.0
 11
46.23463867117149
 21
96.42694403935971
 31
0.0
  0
LINE
  5
8AD
330
1F
100
AcDbEntity
  8
S-ARCH'L BRICK
100
AcDbLine
 10
42.60963867117104
 20
98.71861070602633
 30
0.0
 11
46.23463867117104
 21
98.71861070602633
 31
0.0
  0
HATCH
  5
8AE
330
1F
100
AcDbEntity
  8
S-PATT MAS
100
AcDbHatch
 10
0.0
 20
0.0
 30
0.0
210
0.0
220
0.0
230
1.0
  2
ANSI31
 70
     0
 71
     0
 91
        1
 92
        7
 72
     0
 73
     1
 93
        4
 10
42.60963867117104
 20
98.71861070602635
 10
42.60963867117149
 20
96.42694403935973
 10
46.23463867117149
 20
96.42694403935973
 10
46.23463867117104
 20
98.71861070602635
 97
        0
 75
     0
 76
     1
 52
90.0
 41
12.0
 77
     0
 78
     1
 53
135.0
 43
-353.5184337648065
 44
-7.596478241353281
 45
-1.060660171779821
 46
-1.060660171779821
 79
     0
 47
0.050878204731862
 98
        1
 10
44.62661425219053
 20
97.65762767872153
  0
LINE
  5
8AF
330
1F
100
AcDbEntity
  8
S-ARCH'L BRICK
100
AcDbLine
 10
42.60963867117104
 20
98.71861070602633
 30
0.0
 11
42.60963867117149
 21
96.42694403935971
 31
0.0
  0
ARC
  5
8B0
330
1F
100
AcDbEntity
  8
S-ARCH'L BRICK
100
AcDbCircle
 10
42.60963867117149
 20
96.23944403935972
 30
0.0
 40
0.1875
100
AcDbArc
 50
270.0
 51
90.0
  0
LINE
  5
8B1
330
1F
100
AcDbEntity
  8
S-ARCH'L BRICK
100
AcDbLine
 10
46.23463867117149
 20
96.42694403935971
 30
0.0
 11
46.23463867117104
 21
98.71861070602633
 31
0.0
  0
ARC
  5
8B2
330
1F
100
AcDbEntity
  8
S-ARCH'L BRICK
100
AcDbCircle
 10
46.23463867117149
 20
96.23944403935972
 30
0.0
 40
0.1875
100
AcDbArc
 50
90.0
 51
270.0
  0
LINE
  5
8B3
330
1F
100
AcDbEntity
  8
S-DIMS
100
AcDbLine
 10
42.60963867117104
 20
99.71861070602635
 30
0.0
 11
42.60963867117104
 21
108.714959220061
 31
0.0
  0
LINE
  5
8B4
330
1F
100
AcDbEntity
  8
S-DIMS
100
AcDbLine
 10
54.1096386711711
 20
99.71861070602637
 30
0.0
 11
54.1096386711711
 21
108.714959220061
 31
0.0
  0
LINE
  5
8B5
330
1F
100
AcDbEntity
  8
S-DIMS
100
AcDbLine
 10
42.60963867117104
 20
108.2658689667922
 30
0.0
 11
54.10963867117111
 21
108.2658689667922
 31
0.0
  0
INSERT
  5
8B6
330
1F
100
AcDbEntity
  8
S-ARROW HEAD
100
AcDbBlockReference
  2
axarrow
 10
42.60963867117104
 20
108.2658689667922
 30
0.0
 41
16.0
 42
16.0
 43
16.0
 50
180.0
  0
INSERT
  5
8B7
330
1F
100
AcDbEntity
  8
S-ARROW HEAD
100
AcDbBlockReference
  2
axarrow
 10
54.1096386711711
 20
108.2658689667922
 30
0.0
 41
16.0
 42
16.0
 43
16.0
  0
MTEXT
  5
8B8
330
1F
100
AcDbEntity
  8
S-TEXT
100
AcDbMText
 10
48.78522975222129
 20
110.0706274127799
 30
0.0
 40
1.5
 41
0.0
 71
     5
 72
     1
  1
11 1/2"
  7
SIMPLEX
 73
     1
 44
1.0
1001
ACAD
1000
MTEXTBEGIN
1070
    73
1070
     1
1070
    44
1040
1.0
1070
    74
1070
     0
1000
MTEXTEND
  0
HATCH
  5
8BD
330
1F
100
AcDbEntity
  8
S-PATT MAS
100
AcDbHatch
 10
0.0
 20
0.0
 30
0.0
210
0.0
220
0.0
230
1.0
  2
ANSI31
 70
     0
 71
     0
 91
        1
 92
        7
 72
     0
 73
     1
 93
        4
 10
46.23463867118581
 20
24.05194403936051
 10
42.60963867118582
 20
24.05194403936051
 10
42.60963867118615
 20
22.28651159523462
 10
46.23463867118629
 20
22.28651159523462
 97
        0
 75
     0
 76
     1
 52
90.0
 41
12.0
 77
     0
 78
     1
 53
135.0
 43
0.0
 44
-3.002804155391118
 45
-1.060660171779821
 46
-1.060660171779821
 79
     0
 47
0.0177285759957012
 98
        1
 10
44.89363685091222
 20
23.25907601254968
  0
LINE
  5
8BE
330
1F
100
AcDbEntity
  8
S-ARCH'L BRICK
100
AcDbLine
 10
42.60963867118615
 20
22.28651159523462
 30
0.0
 11
46.23463867118615
 21
22.28651159523462
 31
0.0
  0
LINE
  5
8C0
330
1F
100
AcDbEntity
  8
S-DIMS
100
AcDbLine
 10
42.60963867117104
 20
104.4723303017622
 30
0.0
 11
48.60963867117104
 21
104.4723303017622
 31
0.0
  0
INSERT
  5
8C1
330
1F
100
AcDbEntity
  8
S-ARROW HEAD
100
AcDbBlockReference
  2
axarrow
 10
42.60963867117104
 20
104.4723303017622
 30
0.0
 41
16.0
 42
16.0
 43
16.0
 50
180.0
  0
INSERT
  5
8C2
330
1F
100
AcDbEntity
  8
S-ARROW HEAD
100
AcDbBlockReference
  2
axarrow
 10
48.60963867117104
 20
104.4723303017622
 30
0.0
 41
16.0
 42
16.0
 43
16.0
  0
MTEXT
  5
8C3
330
1F
100
AcDbEntity
  8
S-TEXT
100
AcDbMText
 10
45.81902157058411
 20
106.27708874775
 30
0.0
 40
1.5
 41
0.0
 71
     5
 72
     1
  1
6"
  7
SIMPLEX
 73
     1
 44
1.0
1001
ACAD
1000
MTEXTBEGIN
1070
    73
1070
     1
1070
    44
1040
1.0
1070
    74
1070
     0
1000
MTEXTEND
  0
LINE
  5
8C4
330
1F
100
AcDbEntity
  8
S-DIMS
100
AcDbLine
 10
48.60963867117104
 20
99.71861070602635
 30
0.0
 11
48.60963867117105
 21
104.682677368214
 31
0.0
  0
MTEXT
  5
8C6
330
1F
100
AcDbEntity
  8
S-TEXT
100
AcDbMText
 10
87.21876245939155
 20
103.2716184305724
 30
0.0
 40
1.5
 41
26.34375
 71
     1
 72
     5
  1
FACE OF STUD
  7
SIMPLEX
 73
     1
 44
1.0
1001
ACAD
1000
MTEXTBEGIN
1070
    73
1070
     1
1070
    44
1040
1.0
1070
    74
1070
     0
1000
MTEXTEND
  0
LINE
  5
8C7
330
1F
100
AcDbEntity
  8
S-LEADER
100
AcDbLine
 10
48.60963867117105
 20
102.2730820002671
 30
0.0
 11
86.29915694222139
 21
102.273082000267
 31
0.0
1001
ACAD
1000
DSTYLE
1002
{
1070
   147
1040
0.375
1070
    77
1070
     0
1002
}
  0
INSERT
  5
8C8
330
1F
100
AcDbEntity
  8
S-ARROW HEAD
100
AcDbBlockReference
  2
axarrow
 10
48.60963867117099
 20
102.273082000267
 30
0.0
 41
16.0
 42
16.0
 43
16.0
 50
180.0
1001
ACAD
1000
DSTYLE
1002
{
1070
   147
1040
0.375
1070
    77
1070
     0
1002
}
  0
ENDSEC
  0
SECTION
  2
OBJECTS
  0
DICTIONARY
  5
C
330
0
100
AcDbDictionary
281
     1
  3
ACAD_COLOR
350
73
  3
ACAD_GROUP
350
D
  3
ACAD_LAYOUT
350
1A
  3
ACAD_MATERIAL
350
72
  3
ACAD_MLINESTYLE
350
17
  3
ACAD_PLOTSETTINGS
350
19
  3
ACAD_PLOTSTYLENAME
350
E
  3
ACAD_TABLESTYLE
350
86
  3
ACDBHEADERROUNDTRIPXREC
350
968
  3
AcDbVariableDictionary
350
66
  3
DWGPROPS
350
967
  0
DICTIONARY
  5
14F
330
2
100
AcDbDictionary
280
     1
281
     1
  3
ACAD_LAYERFILTERS
360
8CA
  3
ACAD_LAYERSTATES
360
150
  3
ACLYDICTIONARY
360
8C9
  0
DICTIONARY
  5
A4
330
1F
100
AcDbDictionary
280
     1
281
     1
  3
ACAD_SORTENTS
360
A5
  0
DICTIONARY
  5
73
102
{ACAD_REACTORS
330
C
102
}
330
C
100
AcDbDictionary
281
     1
  0
DICTIONARY
  5
D
102
{ACAD_REACTORS
330
C
102
}
330
C
100
AcDbDictionary
281
     1
  0
DICTIONARY
  5
1A
102
{ACAD_REACTORS
330
C
102
}
330
C
100
AcDbDictionary
281
     1
  3
Layout1
350
59
  3
Model
350
22
  0
DICTIONARY
  5
72
102
{ACAD_REACTORS
330
C
102
}
330
C
100
AcDbDictionary
281
     1
  0
DICTIONARY
  5
17
102
{ACAD_REACTORS
330
C
102
}
330
C
100
AcDbDictionary
281
     1
  3
Standard
350
18
  0
DICTIONARY
  5
19
102
{ACAD_REACTORS
330
C
102
}
330
C
100
AcDbDictionary
281
     1
  0
ACDBDICTIONARYWDFLT
  5
E
102
{ACAD_REACTORS
330
C
102
}
330
C
100
AcDbDictionary
281
     1
  3
Normal
350
F
100
AcDbDictionaryWithDefault
340
F
  0
DICTIONARY
  5
86
102
{ACAD_REACTORS
330
C
102
}
330
C
100
AcDbDictionary
281
     1
  3
Standard
350
87
  0
DICTIONARY
  5
968
102
{ACAD_REACTORS
330
C
102
}
330
C
100
AcDbDictionary
281
     1
  0
DICTIONARY
  5
66
102
{ACAD_REACTORS
330
C
102
}
330
C
100
AcDbDictionary
281
     1
  3
CTABLESTYLE
350
AE
  3
DIMASSOC
350
67
  3
HIDETEXT
350
6B
  3
PROJECTNAME
350
AF
  0
XRECORD
  5
967
102
{ACAD_REACTORS
330
C
102
}
330
C
100
AcDbXrecord
280
     1
  1
DWGPROPS COOKIE
  2
Exterior wall at floor
  3
WD-Wood Details
  4
Axiom Solutions, LLC - Copyright © 2004-2010
  6
Version: V1.1  -  Scale: 3/4"=1'-0"   Example Detail
  7
Wood floors & wood walls, Floors [TJI's] - 2x6 wood walls
  8

  9

300
=
301
=
302
=
303
=
304
=
305
=
306
=
307
=
308
=
309
=
 40
0.0605503587962963
 41
2453391.393778715
 42
2455160.884223993
  1

 90
        0
  0
DICTIONARY
  5
8CA
102
{ACAD_REACTORS
330
14F
102
}
330
14F
100
AcDbDictionary
281
     1
  0
DICTIONARY
  5
150
102
{ACAD_REACTORS
330
14F
102
}
330
14F
100
AcDbDictionary
281
     1
  0
DICTIONARY
  5
8C9
102
{ACAD_REACTORS
330
14F
102
}
330
14F
100
AcDbDictionary
281
     1
1001
ACAD
1000
<All
  0
SORTENTSTABLE
  5
A5
102
{ACAD_REACTORS
330
A4
102
}
330
A4
100
AcDbSortentsTable
330
1F
331
2D8
  5
2DD
331
2A1
  5
2A2
331
16A
  5
16A
331
800
  5
801
331
49B
  5
49B
331
3A6
  5
3C2
331
31F
  5
3B3
331
87E
  5
87F
331
847
  5
848
331
2A9
  5
2AA
331
808
  5
809
331
8BD
  5
4B1
331
3AE
  5
3D5
331
3FD
  5
435
331
44C
  5
48C
331
886
  5
887
331
84F
  5
850
331
810
  5
811
331
3B6
  5
3DD
331
88E
  5
88F
331
2F0
  5
306
331
818
  5
819
331
857
  5
858
331
A1
  5
A1
331
3BE
  5
3FD
331
896
  5
897
331
2B9
  5
2BE
331
820
  5
821
331
3C6
  5
425
331
425
  5
448
331
85F
  5
860
331
2C1
  5
2C6
331
7E9
  5
7EA
331
828
  5
829
331
89E
  5
89F
331
484
  5
35F
331
42D
  5
478
331
35F
  5
3BA
331
867
  5
868
331
2C9
  5
2CE
331
292
  5
292
331
7F1
  5
7F2
331
830
  5
831
331
8A6
  5
8A7
331
48C
  5
302
331
3D6
  5
2B8
331
435
  5
480
331
310
  5
3A4
331
86F
  5
870
331
2D1
  5
2D6
331
838
  5
839
331
29A
  5
29B
331
163
  5
163
331
7F9
  5
7FA
331
8AE
  5
8AF
331
494
  5
494
331
3DE
  5
42E
331
8B6
  5
8B7
331
877
  5
878
331
9A
  5
9A
331
318
  5
3AC
331
2D9
  5
2DE
331
840
  5
841
331
2A2
  5
2A3
331
801
  5
802
331
49C
  5
49C
331
3A7
  5
3C3
331
445
  5
485
331
320
  5
3B4
331
848
  5
849
331
2AA
  5
2AB
331
809
  5
80A
331
87F
  5
880
331
3AF
  5
3D6
331
3FE
  5
436
331
2E9
  5
2F9
331
850
  5
851
331
811
  5
812
331
887
  5
888
331
3B7
  5
3DE
331
2F1
  5
309
331
819
  5
81A
331
88F
  5
890
331
A2
  5
A2
331
3BF
  5
3FE
331
897
  5
898
331
858
  5
859
331
2BA
  5
2BF
331
821
  5
822
331
47D
  5
314
331
3C7
  5
426
331
426
  5
449
331
301
  5
31B
331
860
  5
861
331
2C2
  5
2C7
331
7EA
  5
7EB
331
829
  5
82A
331
89F
  5
8A0
331
42E
  5
479
331
360
  5
3BB
331
309
  5
32E
331
868
  5
869
331
2CA
  5
2CF
331
293
  5
293
331
7F2
  5
7F3
331
831
  5
832
331
8A7
  5
8A8
331
48D
  5
48D
331
436
  5
481
331
8AF
  5
8B0
331
311
  5
3A5
331
2D2
  5
2D7
331
839
  5
83A
331
29B
  5
29C
331
164
  5
164
331
7FA
  5
7FB
331
870
  5
871
331
495
  5
495
331
3DF
  5
42F
331
8B7
  5
8B8
331
9B
  5
9B
331
319
  5
3AD
331
2DA
  5
2DF
331
841
  5
842
331
2A3
  5
2A4
331
802
  5
803
331
878
  5
879
331
49D
  5
49D
331
3A8
  5
3C4
331
446
  5
486
331
321
  5
3B5
331
849
  5
84A
331
2AB
  5
2AC
331
80A
  5
80B
331
880
  5
881
331
3B0
  5
3D7
331
3FF
  5
437
331
851
  5
852
331
812
  5
813
331
888
  5
889
331
3B8
  5
3DF
331
2F2
  5
30A
331
81A
  5
81B
331
890
  5
891
331
A3
  5
A3
331
3C0
  5
3FF
331
859
  5
85A
331
2BB
  5
2C0
331
822
  5
823
331
898
  5
899
331
3C8
  5
427
331
427
  5
44A
331
302
  5
31D
331
861
  5
862
331
2C3
  5
2C8
331
7EB
  5
7EC
331
82A
  5
82B
331
8A0
  5
8A1
331
486
  5
2E8
331
42F
  5
47A
331
361
  5
3BC
331
869
  5
86A
331
2CB
  5
2D0
331
294
  5
294
331
7F3
  5
7F4
331
832
  5
833
331
8A8
  5
8A9
331
48E
  5
48E
331
3D8
  5
428
331
437
  5
482
331
8B0
  5
8B1
331
312
  5
3A6
331
2D3
  5
2D8
331
83A
  5
83B
331
29C
  5
29D
331
165
  5
165
331
7FB
  5
7FC
331
871
  5
872
331
496
  5
496
331
9C
  5
9C
331
3E0
  5
430
331
3A1
  5
3BD
331
8B8
  5
8B9
331
31A
  5
3AE
331
2DB
  5
2E0
331
842
  5
843
331
2A4
  5
2A5
331
803
  5
804
331
879
  5
87A
331
49E
  5
49E
331
3A9
  5
3C5
331
447
  5
487
331
84A
  5
84B
331
2AC
  5
2AD
331
80B
  5
80C
331
881
  5
882
331
3B1
  5
3D8
331
400
  5
438
331
852
  5
853
331
2B4
  5
2B9
331
813
  5
814
331
889
  5
88A
331
3B9
  5
3E0
331
2F3
  5
30B
331
81B
  5
81C
331
891
  5
892
331
477
  5
2F3
331
3C1
  5
400
331
2FB
  5
315
331
85A
  5
85B
331
2BC
  5
2C1
331
823
  5
824
331
899
  5
89A
331
47F
  5
310
331
428
  5
44B
331
303
  5
31E
331
862
  5
863
331
2C4
  5
2C9
331
7EC
  5
7ED
331
82B
  5
82C
331
8A1
  5
8A2
331
487
  5
2FA
331
430
  5
47B
331
86A
  5
86B
331
2CC
  5
2D1
331
295
  5
296
331
7F4
  5
7F5
331
833
  5
834
331
8A9
  5
8AA
331
48F
  5
48F
331
3D9
  5
429
331
438
  5
483
331
8B1
  5
8B2
331
313
  5
3A7
331
2D4
  5
2D9
331
83B
  5
83C
331
29D
  5
29E
331
166
  5
166
331
7FC
  5
7FD
331
872
  5
873
331
497
  5
497
331
9D
  5
9D
331
3A2
  5
3BE
331
3E1
  5
431
331
31B
  5
3AF
331
2DC
  5
2E1
331
843
  5
844
331
2A5
  5
2A6
331
804
  5
805
331
87A
  5
87B
331
49F
  5
49F
331
3AA
  5
3C6
331
448
  5
488
331
84B
  5
84C
331
2AD
  5
2AE
331
80C
  5
80D
331
882
  5
883
331
3B2
  5
3D9
331
401
  5
439
331
853
  5
854
331
2B5
  5
2BA
331
814
  5
815
331
88A
  5
88B
331
3BA
  5
3E1
331
2F4
  5
30C
331
892
  5
893
331
81C
  5
81D
331
3C2
  5
401
331
89A
  5
89B
331
2FC
  5
316
331
85B
  5
85C
331
2BD
  5
2C2
331
824
  5
825
331
480
  5
2E3
331
429
  5
44C
331
8A2
  5
8A3
331
304
  5
31F
331
863
  5
864
331
2C5
  5
2CA
331
7ED
  5
7EE
331
82C
  5
82D
331
488
  5
2F7
331
431
  5
47C
331
8AA
  5
8AB
331
86B
  5
86C
331
2CD
  5
2D2
331
296
  5
297
331
7F5
  5
7F6
331
834
  5
835
331
490
  5
490
331
3DA
  5
42A
331
439
  5
484
331
8B2
  5
8B3
331
314
  5
3A8
331
873
  5
874
331
2D5
  5
2DA
331
83C
  5
83D
331
167
  5
167
331
7FD
  5
7FE
331
9E
  5
9E
331
498
  5
498
331
3A3
  5
3BF
331
3E2
  5
432
331
31C
  5
3B0
331
87B
  5
87C
331
844
  5
845
331
2A6
  5
2A7
331
805
  5
806
331
4A0
  5
4A0
331
3AB
  5
3C7
331
449
  5
489
331
883
  5
884
331
84C
  5
84D
331
2AE
  5
2AF
331
80D
  5
80E
331
469
  5
295
331
3B3
  5
3DA
331
32C
  5
3B6
331
88B
  5
88C
331
854
  5
855
331
2B6
  5
2BB
331
815
  5
816
331
3BB
  5
3E2
331
893
  5
894
331
81D
  5
81E
331
479
  5
2F0
331
3C3
  5
422
331
422
  5
445
331
89B
  5
89C
331
2FD
  5
317
331
85C
  5
85D
331
2BE
  5
2C3
331
825
  5
826
331
481
  5
31A
331
42A
  5
458
331
8A3
  5
8A4
331
305
  5
32C
331
864
  5
865
331
2C6
  5
2CB
331
7EE
  5
7F0
331
82D
  5
82E
331
432
  5
47D
331
8AB
  5
8AC
331
86C
  5
86D
331
2CE
  5
2D3
331
297
  5
298
331
7F6
  5
7F7
331
835
  5
836
331
491
  5
491
331
3DB
  5
42B
331
8B3
  5
8B4
331
315
  5
3A9
331
874
  5
875
331
2D6
  5
2DB
331
83D
  5
83E
331
29F
  5
2A0
331
7FE
  5
7FF
331
9F
  5
9F
331
168
  5
168
331
499
  5
499
331
3A4
  5
3C0
331
3E3
  5
433
331
31D
  5
3B1
331
87C
  5
87D
331
2DE
  5
2E4
331
845
  5
846
331
2A7
  5
2A8
331
806
  5
807
331
4A1
  5
4A1
331
3AC
  5
3C8
331
44A
  5
48A
331
884
  5
885
331
84D
  5
84E
331
2AF
  5
2B0
331
80E
  5
80F
331
3B4
  5
3DB
331
32D
  5
3B7
331
88C
  5
88D
331
855
  5
856
331
2B7
  5
2BC
331
816
  5
817
331
3BC
  5
3E3
331
2F6
  5
30D
331
894
  5
895
331
81E
  5
81F
331
3C4
  5
423
331
423
  5
446
331
89C
  5
89D
331
2FE
  5
318
331
85D
  5
85E
331
2BF
  5
2C4
331
826
  5
827
331
42B
  5
476
331
35D
  5
3B8
331
8A4
  5
8A5
331
306
  5
32D
331
865
  5
866
331
2C7
  5
2CC
331
82E
  5
82F
331
48A
  5
2FE
331
3D4
  5
2B5
331
433
  5
47E
331
8AC
  5
8AD
331
86D
  5
86E
331
2CF
  5
2D4
331
161
  5
161
331
298
  5
299
331
7F7
  5
7F8
331
836
  5
837
331
492
  5
492
331
3DC
  5
42C
331
8B4
  5
8B5
331
316
  5
3AA
331
875
  5
876
331
2D7
  5
2DC
331
83E
  5
83F
331
7FF
  5
800
331
2A0
  5
2A1
331
169
  5
169
331
49A
  5
49A
331
3A5
  5
3C1
331
31E
  5
3B2
331
87D
  5
87E
331
2DF
  5
2E5
331
846
  5
847
331
2A8
  5
2A9
331
807
  5
808
331
4A2
  5
4A2
331
3AD
  5
3D4
331
3FC
  5
434
331
44B
  5
48B
331
885
  5
886
331
2E7
  5
2F4
331
84E
  5
84F
331
2B0
  5
2B4
331
80F
  5
810
331
3B5
  5
3DC
331
88D
  5
88E
331
2EF
  5
304
331
856
  5
857
331
817
  5
818
331
A0
  5
A0
331
3BD
  5
3FC
331
895
  5
896
331
81F
  5
820
331
2B8
  5
2BD
331
47B
  5
2ED
331
3C5
  5
424
331
424
  5
447
331
89D
  5
89E
331
2FF
  5
319
331
85E
  5
85F
331
2C0
  5
2C5
331
7E8
  5
7E9
331
827
  5
828
331
42C
  5
477
331
35E
  5
3B9
331
8A5
  5
8A6
331
866
  5
867
331
2C8
  5
2CD
331
7F0
  5
7F1
331
82F
  5
830
331
3D5
  5
2B6
331
434
  5
47F
331
8AD
  5
8AE
331
86E
  5
86F
331
2D0
  5
2D5
331
837
  5
838
331
162
  5
162
331
299
  5
29A
331
7F8
  5
7F9
331
493
  5
493
331
3DD
  5
42D
331
8B5
  5
8B6
331
317
  5
3AB
331
876
  5
877
331
83F
  5
840
  0
LAYOUT
  5
59
102
{ACAD_XDICTIONARY
360
96B
102
}
102
{ACAD_REACTORS
330
1A
102
}
330
1A
100
AcDbPlotSettings
  1

  2
None
  4

  6

 40
0.0
 41
0.0
 42
0.0
 43
0.0
 44
0.0
 45
0.0
 46
0.0
 47
0.0
 48
0.0
 49
0.0
140
0.0
141
0.0
142
1.0
143
1.0
 70
   688
 72
     0
 73
     0
 74
     5
  7

 75
    16
147
1.0
148
0.0
149
0.0
100
AcDbLayout
  1
Layout1
 70
     1
 71
     1
 10
0.0
 20
0.0
 11
12.0
 21
9.0
 12
0.0
 22
0.0
 32
0.0
 14
0.0
 24
0.0
 34
0.0
 15
0.0
 25
0.0
 35
0.0
146
0.0
 13
0.0
 23
0.0
 33
0.0
 16
1.0
 26
0.0
 36
0.0
 17
0.0
 27
1.0
 37
0.0
 76
     0
330
58
  0
LAYOUT
  5
22
102
{ACAD_XDICTIONARY
360
969
102
}
102
{ACAD_REACTORS
330
1A
102
}
330
1A
100
AcDbPlotSettings
  1

  2
none_device
  4
ANSI_A_(11.00_x_8.50_Inches)
  6

 40
6.349999904632568
 41
19.04999923706055
 42
6.350006103515625
 43
19.05000305175781
 44
279.3999938964844
 45
215.8999938964844
 46
0.0
 47
7.697189858473774
 48
0.0
 49
0.0
140
0.0
141
0.0
142
1.0
143
18.34930240305957
 70
 11956
 72
     0
 73
     0
 74
     0
  7

 75
     0
147
0.0544979846118433
148
863.6798071485536
149
16.79774324356783
100
AcDbLayout
  1
Model
 70
     1
 71
     0
 10
0.0
 20
0.0
 11
12.0
 21
9.0
 12
0.0
 22
0.0
 32
0.0
 14
0.0
 24
0.0
 34
0.0
 15
0.0
 25
0.0
 35
0.0
146
0.0
 13
0.0
 23
0.0
 33
0.0
 16
1.0
 26
0.0
 36
0.0
 17
0.0
 27
1.0
 37
0.0
 76
     0
330
1F
1001
ACAD_PSEXT
1000
None
1000
None
1000
Not applicable
1000
The layout will not be plotted unless a new plotter configuration name is selected.
1070
     0
  0
MLINESTYLE
  5
18
102
{ACAD_REACTORS
330
17
102
}
330
17
100
AcDbMlineStyle
  2
STANDARD
 70
     0
  3

 62
   256
 51
90.0
 52
90.0
 71
     2
 49
0.5
 62
   256
  6
BYLAYER
 49
-0.5
 62
   256
  6
BYLAYER
  0
ACDBPLACEHOLDER
  5
F
102
{ACAD_REACTORS
330
E
102
}
330
E
  0
TABLESTYLE
  5
87
102
{ACAD_REACTORS
330
86
102
}
330
86
100
AcDbTableStyle
  3
Standard
 70
     0
 71
     0
 40
0.06
 41
0.06
280
     0
281
     0
  7
Standard
140
0.18
170
     2
 62
     0
 63
     7
283
     0
274
    -2
284
     1
 64
     0
275
    -2
285
     1
 65
     0
276
    -2
286
     1
 66
     0
277
    -2
287
     1
 67
     0
278
    -2
288
     1
 68
     0
279
    -2
289
     1
 69
     0
  7
Standard
140
0.25
170
     5
 62
     0
 63
     7
283
     0
274
    -2
284
     1
 64
     0
275
    -2
285
     1
 65
     0
276
    -2
286
     1
 66
     0
277
    -2
287
     1
 67
     0
278
    -2
288
     1
 68
     0
279
    -2
289
     1
 69
     0
  7
Standard
140
0.18
170
     5
 62
     0
 63
     7
283
     0
274
    -2
284
     1
 64
     0
275
    -2
285
     1
 65
     0
276
    -2
286
     1
 66
     0
277
    -2
287
     1
 67
     0
278
    -2
288
     1
 68
     0
279
    -2
289
     1
 69
     0
  0
DICTIONARYVAR
  5
AE
102
{ACAD_REACTORS
330
66
102
}
330
66
100
DictionaryVariables
280
     0
  1
STANDARD
  0
DICTIONARYVAR
  5
67
102
{ACAD_REACTORS
330
66
102
}
330
66
100
DictionaryVariables
280
     0
  1
2
  0
DICTIONARYVAR
  5
6B
102
{ACAD_REACTORS
330
66
102
}
330
66
100
DictionaryVariables
280
     0
  1
1
  0
DICTIONARYVAR
  5
AF
102
{ACAD_REACTORS
330
66
102
}
330
66
100
DictionaryVariables
280
     0
  1

  0
DICTIONARY
  5
96B
330
59
100
AcDbDictionary
280
     1
281
     1
  3
ACAD_XREC_ROUNDTRIP
360
96C
  0
DICTIONARY
  5
969
330
22
100
AcDbDictionary
280
     1
281
     1
  3
ACAD_XREC_ROUNDTRIP
360
96A
  0
XRECORD
  5
96C
102
{ACAD_REACTORS
330
96B
102
}
330
96B
100
AcDbXrecord
280
     1
102
SHADEPLOT
 70
     0
102
SHADEPLOTRESLEVEL
 70
     2
102
SHADEPLOTCUSTOMDPI
 70
   300
  0
XRECORD
  5
96A
102
{ACAD_REACTORS
330
969
102
}
330
969
100
AcDbXrecord
280
     1
102
SHADEPLOT
 70
     0
102
SHADEPLOTRESLEVEL
 70
     2
102
SHADEPLOTCUSTOMDPI
 70
   300
  0
ENDSEC
  0
EOF
